Song name
# A B C D E F G H I J K L M N O P Q R S T U V W X Y Z

Domine - Dragonlord tab

                          DRAGONLORD-PART I-

Touch only the string A and the string D

      E|---------------------------------------------------------------------------||
      B|---------------------------------------------------------------------------||
INTRO G|---------------------------------------------------------------------------||
      D|---0-0-0-0-0--0--3-3-3-3-3--3--5-5-5-5-5---7-7-7-7-7-----------------------||
      A|---0-0-0-0-0--0--3-3-3-3-3--3--5-5-5-5-5---7-7-7-7-7-----------------------||
      E|---------------------------------------------------------------------------||
              Repeat this riff for 4 times

INTRO 2: Repeat the Intro 4 times, but now follow the keyboard

    
       E|---------------------------------------------------------------------------||
       B|---------------------------------------------------------------------------||
RIFF 1 G|---------------------------------------------------------------------------||
       D|---0-2-3-2----3-5-3----5-7-5---7-8-7---------------------------------------||
       A|---0-2-3-2----3-5-3----5-7-5---7-8-7---------------------------------------||
       E|---------------------------------------------------------------------------||
               Repeat this riff fir 4 times and follow Morby 


                  Tomorrow I'll make the second part.
Tap to rate this tab
# A B C D E F G H I J K L M N O P Q R S T U V W X Y Z