Song name
# A B C D E F G H I J K L M N O P Q R S T U V W X Y Z

Dominic Balli - Rebel Movement tab

This song is pretty easy, first song off Public Announcement


Here's the Intro:

E |----------------------------------------------------------|
B |----------------------------------------------------------|
G |----------------------------------------------------------|
D |-2-2-2-2---5-5-5-4----------------------------------------|
A |--------------------5-5-2-5-------------------------------|
E |----------------------------------------------------------|

Then Dom goes "WAH-OH-OH" and then it goes onto the verse:

E |--7----------7----------7---------7-----------------------|
B |--8----------8----------7---------7-----------------------|
G |--9----------9----------7---------7-----------------------|
D |----------------------------------------------------------|
A |----------------------------------------------------------|
E |----------------------------------------------------------|


If I'm missing anything, lemme know!
Tap to rate this tab
 
# A B C D E F G H I J K L M N O P Q R S T U V W X Y Z