Song name
# A B C D E F G H I J K L M N O P Q R S T U V W X Y Z

Dominic Behan - The Patriot Game tab

  Patriot Game / Dominic Behan

  CAPO 3rd Fret.
  Tuning Standard


  Come all ye young rebels, and list while I sing, 
  
   C           AM    EM         C
e|--------------------------------------------------|
B|-----------1--------------------------------------|
G|--------0-----2--0--------0--0--------------------|
D|-----2--------------2--0--------------------------|
A|--3-----------------------------3-----------------|
E|--------------------------------------------------|




   For the love of one's country is a terrible thing
 
   C        D       C               AM
e|--------------------0-----------------------------|
B|-----1--1--3--1--3-----1--1-----------------1-----|
G|-----------------------------0--0--2--0--2--------|
D|--------------------------------------------------|
A|--3-----------------------------------------------|
E|--------------------------------------------------|





   It banishes fear with the speed of a flame

   C                      AM        C
e|--------------------------------------------------|
B|--1--1--1--3--1--3--1--------------1--------------|
G|-----------------------0--2--0--2-----------------|
D|--------------------------------------------------|
A|--------------------------------------------------|
E|--------------------------------------------------|



   And it makes us all part of the patriot game

   C     AM                         C
e|--------------------------------------------------|
B|--1-----------1-----------------------------------|
G|--------2--0-----2--0--------0--0-----------------|
D|-----------------------2--0-----------------------|
A|-----3-----------------------------3--------------|
E|--------------------------------------------------|


C         AM      EM               C                                           
My name is O'Hanlon, and I've just turned sixteen.

C          D      C               AM 
My home is in Monaghan, and where I was weaned 

C                     AM                C
I learned all my life cruel England's to blame, 

C      AM                      C
So now I am part of the patriot game. 



This Ireland of ours has too long been half free. 
Six counties lie under John Bull's tyranny. 
But still De Valera is greatly to blame 
For shirking his part in the Patriot game. 

They told me how Connolly was shot in his chair, 
His wounds from the fighting all bloody and bare. 
His fine body twisted, all battered and lame 
They soon made me part of the patriot game. 

It's nearly two years since I wandered away 
With the local battalion of the bold IRA, 
For I read of our heroes, and wanted the same 
To play out my part in the patriot game. 

[extra verse I found]
I don't mind a bit if I shoot down police
They are lackeys for war never guardians of peace
And yet at deserters I'm never let aim
The rebels who sold out the patriot game

And now as I lie here, my body all holes 
I think of those traitors who bargained in souls 
And I wish that my rifle had given the same 
To those Quislings who sold out the patriot game. 
Tap to rate this tab
 
# A B C D E F G H I J K L M N O P Q R S T U V W X Y Z