Song name
# A B C D E F G H I J K L M N O P Q R S T U V W X Y Z

Dommin - My Heart Your Hands tab

================================================================
                   My Heart, Your Hands
                         Dommin
                 My Heart, Your Hands Single
          (or the "Love is Gone" album due in August 09) 
================================================================

               Tabbed by:  John Moores
                mooresjw@email.uc.edu
~~~~~~~~~~~~~~~~~~~~~~~~~~~~~~~~~~~~~~~~~~~~~~~~~~~~~~~~~~~~~~~~

Tuning: Drop B (B F# B E G# C#)

* = Palm Mute
@ = Pinched harmonic
x = muted




Intro
0:12

|-------------------------------------------------------|
|-------------------------------------------------------|
|-------------------------------------------------------|
|--2--2------5--5-----7--7-------7-7-7-7-7--------------|   x4
|--2--2-x-x--5--5-x-x-7--7--x-x--5-5-5-5-5--------------|
|--2--2-x-x--5--5-x-x-7--7--x-x--0-0-0-0-0--------------|


Verse 1
0:37


0:56
|---------------------------------|
|-------0-------0-------0---------|
|-----0---0---0---0---0-----------|
|---2-------2-------2-------------|  x4
|---------------------------------|
|---------------------------------|


1:07
|------------|
|------------|
|------7-----|
|------7-----|
|---x--5-----|
|---x--------|


Chorus
1:08

|-------------------------------------------------------|
|-------------------------------------------------------|
|-------------------------------------------------------|
|--2--2------5--5-----7--7-------7-7-7-7-7--------------|   x4
|--2--2-x-x--5--5-x-x-7--7--x-x--5-5-5-5-5--------------|
|--2--2-x-x--5--5-x-x-7--7--x-x--0-0-0-0-0--------------|


Interlude
1:34

Verse 2
1:46

2:05
|---------------------------------|
|-------0-------0-------0---------|
|-----0---0---0---0---0-----------|
|---2-------2-------2-------------|  x4
|---------------------------------|
|---------------------------------|


2:16
|------------|
|------------|
|------7-----|
|------7-----|
|---x--5-----|
|---x--------|


Chorus
2:16

|-------------------------------------------------------|
|-------------------------------------------------------|
|-------------------------------------------------------|
|--2--2------5--5-----7--7-------7-7-7-7-7--------------|   x3
|--2--2-x-x--5--5-x-x-7--7--x-x--5-5-5-5-5--------------|
|--2--2-x-x--5--5-x-x-7--7--x-x--0-0-0-0-0--------------|


|-------------------------------------------------|
|-------------------------------------------------|
|-------------------------------------------------|
|--2--2------5--5-----7--7-------7-7--------------|
|--2--2-x-x--5--5-x-x-7--7--x-x--5-5--------------|
|--2--2-x-x--5--5-x-x-7--7--x-x--0-0--------------|



Interlude 2
2:42

Start fading in around 2:47
|---------------------------------|
|-------0-------0-------0---------|
|-----0---0---0---0---0-----------|
|---2-------2-------2-------------|  x8
|---------------------------------|
|---------------------------------|



3:06
|------------|
|------------|
|------7-----|
|------7-----|
|---x--5-----|
|---x--------|

Bridge
3:07

|-------------------------------------------------|
|-------------------------------------------------|
|-------------------------------------------------|
|---------------------555555555-------------------| x4
|---2222222222222222--333333333----55555555-------|
|---2222222222222222---------------55555555-------|


Chorus
3:32

|-------------------------------------------------------|
|-------------------------------------------------------|
|-------------------------------------------------------|
|--2--2------5--5-----7--7-------7-7-7-7-7--------------|   x3
|--2--2-x-x--5--5-x-x-7--7--x-x--5-5-5-5-5--------------|
|--2--2-x-x--5--5-x-x-7--7--x-x--0-0-0-0-0--------------|


|-------------------------------------------------|
|-------------------------------------------------|
|-------------------------------------------------|
|--2--2------5--5-----7--7-------10-10------------|
|--2--2-x-x--5--5-x-x-7--7--x-x--10-10------------|
|--2--2-x-x--5--5-x-x-7--7--x-x--10-10------------|


Ending
3:57

|-------------------------------------------------------|
|-------------------------------------------------------|
|-------------------------------------------------------|
|--2--2------5--5-----7--7-------5-5-5-5-5--------------|   x3
|--2--2-x-x--5--5-x-x-7--7--x-x--3-3-3-3-3--------------|
|--2--2-x-x--5--5-x-x-7--7--x-x-------------------------|


|-------------------------------------------------------|
|-------------------------------------------------------|
|-------------------------------------------------------|
|--2--2------5--5-----7--7-------5------2---------------|
|--2--2-x-x--5--5-x-x-7--7--x-x--3-2~---2---------------|
|--2--2-x-x--5--5-x-x-7--7--x-x---------2---------------|



Tap to rate this tab
# A B C D E F G H I J K L M N O P Q R S T U V W X Y Z