Song name
# A B C D E F G H I J K L M N O P Q R S T U V W X Y Z

Dommin - One Feeling tab

Domming - One Feeling

Tuning Drop C (CGCFAD)


I got most parts but still stuck on the Bridge and the Solo so if anyone wants to add or 
parts let me know so we can figure this awesome song out! :)


Intro (0:00 - 0:12)


D---------------------------------|
A---------------------------------|
F---------------------------------|
C---1-1---4-4---6-6---9-9---8-8---|
G---1-1---4-4---6-6---9-9---8-8---|
C---1-1---4-4---6-6---9-9---8-8---|

Verse (0:13 - 0:25)


D----------------------------------------------|
A----------------------------------------------|
F----------------------------------------------|
C---1-1---4-4---6-6---9-9---8-8----------------|
G---1-1---4-4---6-6---9-9---8-8----------------|
C---1-1---4-4---6-6---9-9---8-8---8---11---8---|

Chorus (0:26 - 0:37)


D-----------------------------------|
A-----------------------------------|
F-----------------------------------|
C---1----------4----------4---------|
G---1--(16x)---2--(8x)----4--(8x)---|
C---1---------------------4---------|

Verse 2 (0:38 - 0:55)


D----------------------------------------------|
A----------------------------------------------|
F----------------------------------------------|
C---1-1---4-4---6-6---9-9---8-8----------------|
G---1-1---4-4---6-6---9-9---8-8----------------|
C---1-1---4-4---6-6---9-9---8-8---8---11---8---|

Chorus (1:08 - 1:31)


D-----------------------------------|
A-----------------------------------|
F-----------------------------------|
C---1----------4----------4---------|
G---1--(16x)---2--(8x)----4--(8x)---|
C---1---------------------4---------|


Bridge (1:32 - 1:43)


Solo (1:44 - 2:08


Chorus (2:09 - 2:32)

D-----------------------------------|
A-----------------------------------|
F-----------------------------------|
C---1----------4----------4---------|
G---1--(16x)---2--(8x)----4--(8x)---|
C---1---------------------4---------|


Outro (2:33 - 2:39)


D----------------------------------------------  ---------|
A----------------------------------------------  ---------|
F----------------------------------------------  ---------|
C---1-1---4-4---6-6---9-9---8-8----------------  ---1-1---|
G---1-1---4-4---6-6---9-9---8-8----------------  ---1-1---|
C---1-1---4-4---6-6---9-9---8-8---8---11---8---  ---1-1---|


End.
Tap to rate this tab
 
# A B C D E F G H I J K L M N O P Q R S T U V W X Y Z