Song name
# A B C D E F G H I J K L M N O P Q R S T U V W X Y Z

Don Broco - In My World tab

Special Thanks to 'Mike Ghent' for tabbing this!
Please Subscribe to him! Link Below: 

http://www.youtube.com/user/MikeyGstar182?feature=watch



Intro:
E|--------------------------------|
B|------7--7-7-7-7--7--7--5-------|
G|------7--7-7-7-7--7--7--7-------|  7x 
D|--------------------------------|
A|---------------5--7--7--7-------|
D|------5--5-5-5------------------|

Pre-Chorus:

E|------------------------------------------------------------|
B|-----10-12--------7-8h-7h-----10-12------7-8h-7h------------|
G|---7-------11-------------9-7-------11-----------9----------|
D|-5------------9------------------------9--------------------|
A|------------------------------------------------------------|
D|------------------------------------------------------------|

Chorus:
Play along with the song to figure out strumming

E|-----------------|----------------------------------------|
B|-7--7----------7-|-7----------7---------------------------|
G|-7--7--11--9---7-|-7--11--9---7---------------------------|
D|-------12--------|----12----------------------------------|
A|-----------------|----------------------------------------|
D|-5--7--9---7---5-|-5--9---7-------------------------------|


Solo bit of the second verse: 

E|-------------------------------------------------------------|
B|-------------------------------------------------------------|
G|-------------------------------------------------------------|
D|---------------7---------------9-9--9-7-9-7------------------|
A|---------7--9----9------------------------------9--7--5------|
D|-------------------------------------------------------------|

Breakdown:

E|-------------------------------|
B|-----7-------7-----------------|
G|-----7-------7-----------------|
D|---------------------2---------| X2
A|-------------5-------2---------|
D|-----5-------0---0---2---------|

E|--------------------------------------------------|
B|--------------------------------------------------|
G|-11-11--14-14---7--7-7----11--14--14--14---7------|
D|-12-12---x--x---x--x-x----12--x---x---x----x------|
A|--------12-12---5--5-5--------12--12--12---5------|
D|-9--9---------0--------0--9--------------0---0----|

Thats All :) 
Tap to rate this tab
# A B C D E F G H I J K L M N O P Q R S T U V W X Y Z