Song name
# A B C D E F G H I J K L M N O P Q R S T U V W X Y Z

Don Broco - Actors tab

---------------------------------------------------------------------------                  
SONG NAME - Band Name
----------------------------------------------------------------------------
Tabbed by: haydenm
E-mail: hayden.merrick@hotmail.com

Tuning:Drop D

e|----------------------------------------------------------------------|
b|------------------------------------------------9---11-11--9--11--9--|
g|----------------------9--9----------------------9---11-11--9--11--9--|
d|----11--11--11--11----9--9----------------------9---11-11--9--11--9--|
a|----11--11--11--11----7--7------11--11--11---------------------------|
d|----11--11--11--11--------------11--11--11---------------------------|
x3

e|---------------------------------------------------------------------|
b|------------------------------9--11-11-9-11-9------------------------|
g|------------------------------9--11-11-9-11-9------------------------|
d|---7-7-7-7-7-7--9-9--7-7-7----9--11-11-9-11-9------------------------|
a|---7-7-7-7-7-7--9-9--7-7-7-------------------------------------------|
E|---7-7-7-7-7-7--9-9--7-7-7-------------------------------------------|

verse: "we would talk about..."
e|---------------------------------------------------------------------|
b|---------------------------------------------------------------------|
g|---------------------------------------------------------------------|
d|--------------------------------------------------------7-7-7-7-9----|
a|-4--7-----------4--7-----------4--7--------------4--7---7-7-7-7-9----|
D|-------4--6--0-------4--6--0----------4--6--0-----------7-7-7-7-9----|

chorus: "be dazzled..."
e|---------------------------------------------------------------------|
b|---------------------------------------------------------------------|
g|---------------------------------------------------------------------|
d|-11--9--7--9--11--9--7--9--11--9--7--9--11--9--4--4--7--7--9--9------|
a|-11--9--7--9--11--9--7--9--11--9--7--9--11--9--4--4--7--7--9--9------|
D|-11--9--7--9--11--9--7--9--11--9--7--9--11--9--4--4--7--7--9--9------|


************************************

| /   slide up
| \   slide down
| h   hammer-on
| p   pull-off
| ~   vibrato
| +   harmonic
| x   Mute note
| b   Bend
| pb  Pre-bend
| br  Bend release
| pbr Pre-bend release
| brb Bend release bend

************************************
Tap to rate this tab
# A B C D E F G H I J K L M N O P Q R S T U V W X Y Z