Song name
# A B C D E F G H I J K L M N O P Q R S T U V W X Y Z

Don Broco - Actors tab

Actors- Don Broco
-----------------------------------------------------------------------------
Tabbed by:
E-mail:cherryw321@yahoo.co.uk
Tuning:EADGBe
Verse 
e|----0-0-0----0-0-0--0-0-0-0----0-0-0----0-0-0--0-0-0-0--|
B|----1-1-1----1-1-1--0-0-0-0----1-1-1----1-1-1--0-0-0-0--|
G|----2-2-2----2-2-2--0-0-0-0----2-2-2----2-2-2--0-0-0-0--|
D|----2-2-2----2-2-2--2-2-2-2----2-2-2----2-2-2--2-2-2-2--|
A|----0-0-0----0-0-0--2-2-2-2----0-0-0----0-0-0--2-2-2-2--|
E|--------------------0-0-0-0--------------------0-0-0-0--|

e|-0-0-0-0-0-0-0-0-0-0--0-0-0--|
B|-1-1-1-1-1-1-1-1-1-1--0-0-0--|
G|-0-0-0-0-0-0-0-0-0-0--0-0-0--|
D|-2-2-2-2-2-2-2-2-2-2--2-2-2--|
A|-3-3-3-3-3-3-3-3-3-3--2-2-2--|
E|-0-0-0-0-0-0-0-0-0-0--0-0-0--|

e|----0-0-0----0-0-0--0-0-0-0----0-0-0----0-0-0--0-0-0-0--|
B|----1-1-1----1-1-1--0-0-0-0----1-1-1----1-1-1--0-0-0-0--|
G|----2-2-2----2-2-2--0-0-0-0----2-2-2----2-2-2--0-0-0-0--|
D|----2-2-2----2-2-2--2-2-2-2----2-2-2----2-2-2--2-2-2-2--|
A|----0-0-0----0-0-0--2-2-2-2----0-0-0----0-0-0--2-2-2-2--|
E|--------------------0-0-0-0--------------------0-0-0-0--|

e|-0-0-0-0-0-0-0-0-0-0--0-0-0--|
B|-1-1-1-1-1-1-1-1-1-1--0-0-0--|
G|-0-0-0-0-0-0-0-0-0-0--0-0-0--|
D|-2-2-2-2-2-2-2-2-2-2--2-2-2--|
A|-3-3-3-3-3-3-3-3-3-3--2-2-2--|
E|-0-0-0-0-0-0-0-0-0-0--0-0-0--|
chorus
e|-----------------------------------------------------------|
B|-----------------------------------------------------------|
G|-----------------------------------------------------------|
D|--11-11-11-11-11-11--9-9-9-9-9-9--7-7-7-7-7-7-7-7-7-7-7-7--|
A|--11-11-11-11-11-11--9-9-9-9-9-9--7-7-7-7-7-7-7-7-7-7-7-7--|
E|---9--9--9--9--9--9--7-7-7-7-7-7--5-5-5-5-5-5-5-5-5-5-5-5--|

e|-----------------------------------------------------------|
B|-----------------------------------------------------------|
G|-----------------------------------------------------------|
D|--11-11-11-11-11-11--9-9-9-9-9-9--7-7-7-7-7-7-7-7-7-7-9-9--|
A|--11-11-11-11-11-11--9-9-9-9-9-9--7-7-7-7-7-7-7-7-7-7-9-9--|
E|---9--9--9--9--9--9--7-7-7-7-7-7--5-5-5-5-5-5-5-5-5-5-7-7--|

-----------------------------------FIN--------------------------------------
Tap to rate this tab
# A B C D E F G H I J K L M N O P Q R S T U V W X Y Z