Song name
# A B C D E F G H I J K L M N O P Q R S T U V W X Y Z

Don Broco - Actors tab

-------------------------------------------------------------------------------
                             Actors - Don Broco
-------------------------------------------------------------------------------
Tabbed by:ThunderBBM
E-mail:TheThunder117@gmail.com

Tuning: Drop D (DADGBE)

Intro
e|--------------------------------------------------------------------------|
B|-------------------------------------------------------9--11-11-9-11-11-9-|
G|--------------------------------9-9--------------------9--11-11-9-11-11-9-|
D|---11-11-11----11----11--11-11--9-9----11-11-11----11--9--11-11-9-11-11-9-|
A|---11-11-11----11----11--11-11--7-7----11-11-11----11---------------------|
D|---11-11-11----11----11--11-11---------11-11-11----11---------------------|
(x2)

e|-------------------------------------------------------------------------------|
B|-------------------------------------------------------9--11-11-11-11-11-11-11-|
G|--------------------------------9-9--------------------9--11-11-11-11-11-11-11-|
D|---11-11-11----11----11--11-11--9-9----11-11-11----11--9--11-11-11-11-11-11-11-|
A|---11-11-11----11----11--11-11--7-7----11-11-11----11--------------------------|
D|---11-11-11----11----11--11-11---------11-11-11----11--------------------------|

e|--------------------------------------------------------------------------|
B|--------------------------------------------9--11-11-11-11-11-11-11-------|
G|--------------------------------------------9--11-11-11-11-11-11-11-------|
D|---7-7-7----7----7--7-7--9-9----7-7-7----7--9--11-11-11-11-11-11-11-------|
A|---7-7-7----7----7--7-7--9-9----7-7-7----7--------------------------------|
D|---7-7-7----7----7--7-7--9-9----7-7-7----7--------------------------------|


 1st Verse
e|-----------------------|
B|-----------------------|
G|-----------------------|
D|-----------------------|
A|---4---7---------------|
D|------------4--6--0----|
(x5)

e|--------------------------|
B|--------------------------|
G|--------------------------|
D|------------7-7-7-7-7-7-9-|
A|---4---7----7-7-7-7-7-7-9-|
D|------------7-7-7-7-7-7-9-|


Chorus
e|--------------------------------------------------------------------------|
B|--------------------------------------------------------------------------|
G|--------------------------------------------------------------------------|
D|---11-11-11-11-11-11-9-9-9-9-9-9-7-7-7-7-7-7-7-7-7-7-7-7-9-9-9------------|
A|---11-11-11-11-11-11-9-9-9-9-9-9-7-7-7-7-7-7-7-7-7-7-7-7-9-9-9------------|
D|---11-11-11-11-11-11-9-9-9-9-9-9-7-7-7-7-7-7-7-7-7-7-7-7-9-9-9------------|
(x3)

e|----------------------------------------------------------------------------------------|
B|----------------------------------------------------------------------------------------|
G|----------------------------------------------------------------------------------------|
D|---11-11-11-11-11-11-9-9-9-9-9-9-4-4-4-4-4-4-4-4-4-4-4-4-7-7-7-7-7-7-7-7-7-7-7-7-9-9-9--|
A|---11-11-11-11-11-11-9-9-9-9-9-9-4-4-4-4-4-4-4-4-4-4-4-4-7-7-7-7-7-7-7-7-7-7-7-7-9-9-9--|
D|---11-11-11-11-11-11-9-9-9-9-9-9-4-4-4-4-4-4-4-4-4-4-4-4-7-7-7-7-7-7-7-7-7-7-7-7-9-9-9--|


Post Chorus (Similar to intro) 
e|-------------------------------------------------------------------------------|
B|-------------------------------------------------------9--11-11-11-11-11-11-11-|
G|--------------------------------9-9--------------------9--11-11-11-11-11-11-11-|
D|---11-11-11----11----11--11-11--9-9----11-11-11----11--9--11-11-11-11-11-11-11-|
A|---11-11-11----11----11--11-11--7-7----11-11-11----11--------------------------|
D|---11-11-11----11----11--11-11---------11-11-11----11--------------------------|

e|--------------------------------------------------------------------------|
B|--------------------------------------------9--11-11-11-11-11-11-11-------|
G|--------------------------------------------9--11-11-11-11-11-11-11-------|
D|---7-7-7----7----7--7-7--9-9----7-7-7----7--9--11-11-11-11-11-11-11-------|
A|---7-7-7----7----7--7-7--9-9----7-7-7----7--------------------------------|
D|---7-7-7----7----7--7-7--9-9----7-7-7----7--------------------------------|


2nd Verse
e|-----------------------|
B|-----------------------|
G|-----------------------|
D|-----------------------|
A|---4---7---------------|
D|------------4--6--0----|
(x3)
e|--------------------------|
B|--------------------------|
G|--------------------------|
D|------------7-7-7-7-7-7-9-|
A|---4---7----7-7-7-7-7-7-9-|
D|------------7-7-7-7-7-7-9-|


Chorus


Outro
e|-------------------------------------------------------------------------------|
B|-------------------------------------------------------9--11-11-11-11-11-11-11-|
G|--------------------------------9-9--------------------9--11-11-11-11-11-11-11-|
D|---11-11-11----11----11--11-11--9-9----11-11-11----11--9--11-11-11-11-11-11-11-|
A|---11-11-11----11----11--11-11--7-7----11-11-11----11--------------------------|
D|---11-11-11----11----11--11-11---------11-11-11----11--------------------------|

e|--------------------------------------------------------------------------|
B|--------------------------------------------9--11-11-9-11-11-9------------|
G|--------------------------------------------9--11-11-9-11-11-9------------|
D|---7-7-7----7----7--7-7--9-9----7-7-7----7--9--11-11-9-11-11-9------------|
A|---7-7-7----7----7--7-7--9-9----7-7-7----7--------------------------------|
D|---7-7-7----7----7--7-7--9-9----7-7-7----7--------------------------------|
(2x)
e|---------|
B|---------|
G|---------|
D|---11\---|
A|---11\---|
D|---11\---|


************************************

| /   slide up
| \   slide down
| h   hammer-on
| p   pull-off
| ~   vibrato
| +   harmonic
| x   Mute note
| b   Bend
| pb  Pre-bend
| br  Bend release
| pbr Pre-bend release
| brb Bend release bend

************************************
Tap to rate this tab
# A B C D E F G H I J K L M N O P Q R S T U V W X Y Z