Song name
# A B C D E F G H I J K L M N O P Q R S T U V W X Y Z

Don Caballero - Palm Trees In The Fecking Bahamas tab

“Palm Trees in the Fecking Bahamas” by Don Caballero
Tabbed by Greg Mitchell (xxvrufiovxx)

Keep in mind, this song has two guitar parts, this is only one of the guitars parts.
this definitely is not 100% correct.  It sounds good with the song, and I’m sure some of
is correct.  The actual guitars may be playing much more intricate stuff that I just 
decipher.  Have fun with this, it’s one of my favorites to play.  Make sure you follow
times over the riffs, or else you’ll get lost.

Standard Tuning


:01-:48
E|------0---------------0-------|
B|----9---9----10-----9---9-10\-|
G|-11-------11-11--11-------11\-|
D|------------------------------|
A|------------------------------|
E|------------------------------|

:49-1:02
E|-----9--------7---------------------|
B|-------------------10--10--10-10-10-|
G|-8h9---9--6h7---7-------------------|
D|------------------------------------|
A|------------------------------------|
E|------------------------------------|

1:03-1:30
E|-----------------|
B|-----------------|
G|-----9-----9-----|
D|-6h7---6h7---6h7-| Keep Repeating
A|-----------------|
E|-----------------|

1:30-1:43
E|-------|
B|-------|
G|-----9-|
D|-6h7---|  Keep Repeating
A|-------|
E|-------|

1:44-2:12
E|-------------------------------------------------|
B|-------------------------------------------------|
G|-------------------------------------------------|
D|-11-11--9-7--7-7-7-6-7---11-11--9-7--6/7-9-9-6-7-|
A|-------------------------------------------------|
E|-------------------------------------------------|

2:13-2:26
E|-------0----------12---------------|
B|----12---12----12----12------------|
G|-14---------14---------------------|
D|-------------------------x14-12-11-|
A|-----------------------------------|
E|-----------------------------------|

2:27-2:40
E|--------------------------------------------|
B|--------------------------------------------|
G|----------------------------------6h7p6p4-6-|
D|-6h7p6p4-6--6h7p6p4-6--6h7p6p4-6------------| Diff. Patterns
A|--------------------------------------------|
E|--------------------------------------------|

2:41-2:54
E|--------------------------------------------------|
B|--------------------------------------------------|
G|--------------------------------------------------|
D|-13-13--11-9--9-9-9-8-9---11-11--11-9--8-9-11-8-9-|
A|--------------------------------------------------|
E|--------------------------------------------------|

2:55-3:08
E|-------------------14-------------|
B|----14-12-14----14----14----------|
G|-16----------16-------------------|
D|-------------------------16-14-13-|
A|----------------------------------|
E|----------------------------------|

3:09-3:23
E|----------------------------------------------|
B|----------------------------------------------|
G|-----------------------------------8h9p8p6-8--|
D|-8h9p8p6-8--8h9p8p6-8--8h9p8p6p-8-------------|
A|----------------------------------------------|
E|----------------------------------------------|

3:24-End
E|-------0------|
B|----12--------|
G|-11-------9-8-|
D|--------------|  Mess Around with these notes, end on D#
A|--------------|
E|--------------|

Official website of the band is www.myspace.com/doncaballero
Tap to rate this tab
 
# A B C D E F G H I J K L M N O P Q R S T U V W X Y Z