Song name
# A B C D E F G H I J K L M N O P Q R S T U V W X Y Z

Don Dokken - Mirror Mirror tab

Pretty good solo. But very complex,
transcribed it since the only one on here is the power tab version of the song. (it is 
very accurate).
I'm also doing it since iPod users like myself can't use power tabs
when I look for tabs on here. Uses diminished scaling, string skipping, finger tapping,
3 notes per string and major scales. Very complex.

Legend:
p Pull off
h Hammer on
t Finger tap
b Bend (not really room to say whether its full bend of 1/2, listen to the recording to
figure this out.)
x Mute
/ Slide
pb Pre-bend


E-----------------------7-10-------17p14----10-9-7--------------------------|
B------------------7-10------14-16------15---------10-9-7--10-9-7-----------|
G--------------4-7------------------------16--------------------------------|
D----------4-7--------------------------------------------------------------|
A------2-5---------------------------------------------------------9-x-x----|
E--2-5----------------------------------------------------------------------|


E------------------------|-------------16----------14-----------------------|
B--------------------17b-|-------14-17----17----------16-----16b--16--------|
G------------------------|----16-------------16-16-------16-----------11b-p9|
D---------14/15/18-------|--------------------------------------------------|
A--11--------------------|--------------------------------------------------|
E------------------------|--------------------------------------------------|

E------------------------------------------|
B------------------------------------------|
G-------11-11-9----------------------------|
D--11-9---------11-9h11p9------------------|
A-------------------------11-10-9-7--------|
E-----------------------------------9-7----|

The tapping part, you really need to listen to the recording for the timing.

E---------11h12p11p9h12t14p12p11p9h12t16p12p11p9h12t17p12p11p9t16p12p11p9t19|
B---------------------------------------------------------------------------|
G---------------------------------------------------------------------------|
D---------------------------------------------------------------------------|
A---------------------------------------------------------------------------|
E--9------------------------------------------------------------------------|

On the last note on the tapping part, bend up with your tapping finger.
E-12p11p9-19b|-------14-14----16----17b--|--17b---16--------|
B------------|--x/---------14----14------|------------17b---|
G------------|---------------------------|------------------|
D------------|---------------------------|------------------|
A------------|---------------------------|------------------|
E------------|---------------------------|------------------|

E--------------14--16b--14--------------------------------------------------|
B--17b---------------------17b----17pb---------------------17---------------|
G----------------------------------------18----18b-----------18-16-14---16--|
D--------------------------------------18----16---------19-----------16-----|
A---------------------------------------------------------------------------|
E---------------------------------------------------------------------------|

E---------14-16-17-16-14----14------------------14b-----------------------|
B------------------------17----17/19p17-19-17b------14--------------------|
G--14b-------------------------------------------------16-14b----16-14b---|
D-------------------------------------------------------------16--------16|
A-------------------------------------------------------------------------|
E-------------------------------------------------------------------------|

E--------------------------------17h21-17h21p17----17-19-21-19------------|
B-----------------------------19----------------19------------------------|
G--------------------------18---------------------------------------------|
D-14-16b--x-------------16------------------------------------------------|
A---------x----16-14-16---------------------------------------------------|
E---------x---------------------------------------------------------------|
Tap to rate this tab
# A B C D E F G H I J K L M N O P Q R S T U V W X Y Z