Song name
# A B C D E F G H I J K L M N O P Q R S T U V W X Y Z

Don Henley - Boys Of Summer tab

This song has quite the.... intersting timing, thats why i put the time with the tabs
Just to keep you kinda knowing what ur looking at in case you get lost... Its not that
hard to stay with... shouldnt be. Ok this songs easy so go for it and if u got any
problems with it, compliments, insults, whatever it is, send em to me at Darksimonov@yahoo.com
 
(INTRO)

 (00:06)     (:08)     (:14)      (:20)                         (:28) 
|---------------------------------------------------------------------------|
|--3/5~---------3-----------3------8p6---5-----10p8--8p5--------12p10-------|
|-----------2/4---4--*--2/4---4--------7-------------------7/9--------------|
|---------------------------------------------------------------------------|
|---------------------------------------------------------------------------|
|---------------------------------------------------------------------------|
( * - a quarter beat after the 4 Begin Riff 2)

RIFF 2 (BTW THIS IS THE RIGHT WAY!)
|--3--2----|          |--3--2-----|
|-------3--|          |--------3--|
|----------|x4 Then...|-----------|... Keep switching between those
|--2-------|          |-----------|
|----------|          |--3--------|
|----------|          |-----------|
Tap to rate this tab
# A B C D E F G H I J K L M N O P Q R S T U V W X Y Z