Song name
# A B C D E F G H I J K L M N O P Q R S T U V W X Y Z

Don Mclean - Winterwood tab

-------------------------------------------------------------------------------
			     Winterwood - Don McLean
-------------------------------------------------------------------------------


Tuning: Standard

This is just the intro,wether its right or wrong it should give some idea
of how to play it,hope it helps.

e|-----------------------0---------------------------2p0---------------------|
B|---------------0---0h2-----0---------------0---0h2-------0-----------------|
G|-------------2---2-------2---------------2---2---------2-------------------|
D|---------------------------------------------------------------------------|
A|------0h2-0-----------------------0h2-0--------------------------0h2-0-----|
E|--0h2-------------------------0h2----------------------------0h2-----------|
Tap to rate this tab
# A B C D E F G H I J K L M N O P Q R S T U V W X Y Z