Song name
# A B C D E F G H I J K L M N O P Q R S T U V W X Y Z

Don Mclean - Flight Of Dragons tab

The timing is not exact, repeat chords as necessary to satisfy music. This is my second 
and I think it is pretty spot on. All suggestions appreciated, comment and rate please 
others.


  Am                   Dm                   F
|----------0---------|-----------1---------|----------1---------|
|----1-------1-------|-----3-------3-------|----1-------1-------|
|------2-------2-----|-------2-------2-----|------3-------2-----|
|--------2-------2---|---------0-------0---|--------3-------3---|
|--0---------------0-|---0---------------0-|--3---------------3-|
|--------------------|---------------------|--------------------|

  G                      G7                  E
|----------3---------|----------1---------|----------0-----------|
|----0-------0-------|----0-------0-------|----0-------0---------|
|-----0-------0-----|------0-------0-----|------1-------1--------|
|--------0-------0---|--------0-------0---|--------2-------2-----|
|--------------------|--------------------|--2---------------2---|
|--3---------------3-|--3---------------3-|----------------------|


Capo 5

Am
Flight of dragons soar in the purple light
F                   Dm
In the sky or in my mind
Am                              Dm
Flight of dragons sail past reality
 F      G         Am (strum)
Leave illusion behind

Dm             G7
Is it the past I see
Dm                  G7
When I look up to the heavens
Am                 F
Believing in the magic
E                       Am
That I know could never be

Dm                            G7
I want to go where they are going
Am                      E
Into the world they've been
Dm           E               Am
Can I open up my mind enough to see

Am
Flight of dragons, heavenly argosies
F                         Dm
Catch the wind, rise out of sight
Am                         Dm
Flight of dragons, pilots of fantasy
F          G          Am
In the sky or in my mind

Am
Flight of dragons
Am
Flight of dragons
Tap to rate this tab
# A B C D E F G H I J K L M N O P Q R S T U V W X Y Z