Song name
# A B C D E F G H I J K L M N O P Q R S T U V W X Y Z

Don Mclean - Vincent tab

                                    Vincent                                     


Don McClean



     S  E.  S  E.  E  E  E  E     E  E  E  E  E  E  E  E   
E||----------------3--------3--|-----------3-----------0--|
B||----------------0--------0--|--1--------1--0--------0--|
G||---------0h-2---------0-----|--------0-----------0-----|
D||--0h-2-------------0--------|-----0-----------0--------|
A||----------------------------|--------------------------|
E||----------------3-----------|--3--------3--3-----------|


  E  E  E   E  E  E  E  E     E  E  E  E  E  E  E.  S  
---------------------------|--------------------------|
--3-----1p--0-----------1--|--0-----------0--0--1-----|
-----0---------------2-----|-----------2--------------|
------------------2--------|--------2---------------2-|
---------------0-----------|-----0-----------0--------|
--3-----3------------------|--------------------------|


  E  E  E  E  E  E  E  E     E  E  E  E  E  E  E  E   
--------------------------|--------------------------|
-----0--0-----1-----------|-----1--0--------0--------|
--2--------2-----2--------|--0-----------0--------2--|
-----------------------2--|-----------2--------0-----|
--------0-----------3-----|--------3-----------------|
--------------------------|--------------------------|


  E  E  E  E  E  E  E  E     E  E     S  E.  S  E.  E  E  E  E   
--------------0--2--3-----|--------|----------------3--------3--|
--3--1--0-----1--0--0-----|--0-----|----------------0--------0--|
-----------2-----2--0-----|-----0--|---------0h-2---------0-----|
-----------------------0--|--------|--0h-2-------------0--------|
--------------------------|--------|----------------------------|
--------------------3-----|--------|----------------3-----------|


  E  E  E  E  E  E  E  E     E  E  E   E  E  E  E  E   
-----------3-----------0--|---------------------------|
--1--------1--0--------0--|--3-----1p--0-----------1--|
--------0-----------0-----|-----0---------------2-----|
-----0-----------0--------|------------------2--------|
--------------------------|---------------0-----------|
--3--------3--3-----------|--3-----3------------------|


  E  E  E  E  E  E  E.  S    E  E  E  E  E  E  E  E   
--------------------------|--------------------------|
--0-----------0--0--1-----|-----0--0-----1-----------|
-----------2--------------|--2--------2-----2--------|
--------2---------------2-|-----------------------2--|
-----0-----------0--------|--------0-----------3-----|
--------------------------|--------------------------|


  E  E  E  E  E  E  E  E     E  E  E  E  E  E  Q       E  E  E  E  E   E  Q     
--------------------------|--------------0--2--3----|---------------------3----|
-----1--0--------0--------|--3--1--0-----1--0--0----|--0-----1--3--1p--0--0----|
--0-----------0--------2--|-----------2-----2--0----|-----0---------------0----|
-----------2--------0-----|-------------------------|--------2--4--2p--0-------|
--------3-----------------|-------------------------|--------------------------|
--------------------------|--------------------3----|---------------------3----|


  E  E     E  E  E  E  E  E  E  E     E  E  E  E  E  E  E  E   
--L-----|--------------------------|-----------0--2-----------|
--L-----|--0--1--3--------------1--|--1-----3-----------1-----|
--L-----|--0--------0--------2-----|-----2-----------2-----2--|
--------|-----------------2--------|--------------0-----------|
--------|-----0--2-----0-----------|--0-----------------------|
--L-----|--3-----------------------|--------------------------|


  E  E  E  E  E  E  E  E     E  E  E  E  E  E  E  E   
--------2-----------------|--------------------------|
--------1-----------------|-----------------0-----3--|
-----2-----2--0-----0-----|--------------------0-----|
-----------------0-----4--|--0--4--2-----2--------2--|
--0-----------------------|-----------2--------------|
--------------3--------2--|--------0--------0--------|


  E  E  E  E  E  E  E  E     E  E  E  E  E  E  E  E     E  E  E  E  E  Q.      
-----------------0--------|-----0-----------2--------|-----2------------------|
-----1--------1-----1-----|--1-----1-----1-----3-----|--3-----3-----0---------|
--0--------0-----------2--|-----------2-----------2--|-----------2------------|
--------2-----------------|--------------------------|------------------------|
-----0-----------0--------|-----0-----------0--------|-----------------2------|
--------------------------|--------------------------|-----------------0------|


  H           E  E  E  E  E  E  E  E     E  E  E  E  E  E  E  E   
-----------|--------------0-----------|--------0--2--------2--3--|
-----------|--------2-----2-----2--1--|-----1--------1-----------|
-----------|--------0-----------0-----|-----0-----------2--------|
-----------|-----2-----2-----2--------|--2-----2--0--------------|
--L--------|--0--------------------0--|--------------------------|
--L--------|--------------------------|-----------------------3--|


  E  E  E  E  E  E  E  E     E  H        E     S  E.  S  E.  E  E  E  E   
-----------2-----0--------|-----------------|----------------3--------3--|
-----0--------------0--3--|-----0--------L--|----------------0--------0--|
--------0-----0-----------|--0--------------|---------0h-2---------0-----|
--0-----------------------|-----------------|--0h-2-------------0--------|
--------------------------|-----------------|----------------------------|
-----------3-----------3--|-----------------|----------------3-----------|


  E  E  E  E  E  E  E  E     E  E  E   E  E  E  E  E   
-----------3-----------0--|---------------------------|
--1--------1--0--------0--|--3-----1p--0-----------1--|
--------0-----------0-----|-----0---------------2-----|
-----0-----------0--------|------------------2--------|
--------------------------|---------------0-----------|
--3--------3--3-----------|--3-----3------------------|


  E  E  E  E  E  E  E.  S    E  E  E  E  E  E  E  E   
--------------------------|--------------------------|
--0-----------0--0--1-----|-----0--0-----1-----------|
-----------2--------------|--2--------2-----2--------|
--------2---------------2-|-----------------------2--|
-----0-----------0--------|--------0-----------3-----|
--------------------------|--------------------------|


  E  E  E  E  E  E  E  E     E  E  E  E  E  E  E  E     E  E   
--------------------------|--------------0--2--3-----|--------|
-----1--0--------0--------|--3--1--0-----1--0--0-----|--0-----|
--0-----------0--------2--|-----------2-----2--0-----|-----0--|
-----------2--------0-----|-----------------------0--|--------|
--------3-----------------|--------------------------|--------|
--------------------------|--------------------3-----|--------|


  S  E.  S  E.  E  E  E  E     E  E  E  E  E  E  E  E   
----------------3--------3--|-----------3-----------0--|
----------------0--------0--|--1--------1--0--------0--|
---------0h-2---------0-----|--------0-----------0-----|
--0h-2-------------0--------|-----0-----------0--------|
----------------------------|--------------------------|
----------------3-----------|--3--------3--3-----------|


  E  E  E   E  E  E  E  E     E  E  E  E  E  E  E.  S  
---------------------------|--------------------------|
--3-----1p--0-----------1--|--0-----------0--0--1-----|
-----0---------------2-----|-----------2--------------|
------------------2--------|--------2---------------2-|
---------------0-----------|-----0-----------0--------|
--3-----3------------------|--------------------------|


  E  E  E  E  E  E  E  E     E  E  E  E  E  E  E  E     E  E  E  E  E  E  Q     
--------------------------|--------------------------|--------------0--2--3----|
-----0--0-----1-----------|-----1--0--------0--------|--3--1--0-----1--0-------|
--2--------2-----2--------|--0-----------0--------2--|-----------2-----2--0----|
-----------------------2--|-----------2--------0-----|-------------------------|
--------0-----------3-----|--------3-----------------|-------------------------|
--------------------------|--------------------------|--------------------3----|


  E  E     E  E  E  E  E  E  E  E     E  E  E  E  E  E  E  E   
--------|--------------------------|-----------0--2-----------|
--0-----|--0--1--3--------------1--|--1-----3-----------1-----|
-----0--|--0--------0--------2-----|-----2-----------2-----2--|
--------|-----------------2--------|--------------0-----------|
--------|-----0--2-----0-----------|--------------------------|
--------|--3-----------------------|--------------------------|


  E  E  E  E  E  E  E  E     E  E  E  E  E  E  E  E   
--------2-----------------|--------------------------|
--------1-----------------|-----------------0-----3--|
-----2-----2--0-----0-----|--------------------0-----|
-----------------0-----4--|-----4--2-----2--------2--|
--0-----------------------|--5--------2--------------|
--------------3--------2--|--------0--------0--------|


  E  E  E  E  E  E  E  E      E  E  E  E  E  E  Q       H         
---------------------------|--------------2----------|-----------|
-----1--------1--0-----0h--|--1-----------1----------|-----------|
--0--------0--------2------|-----2-----2-----2--1----|--L--------|
--------2------------------|--------0-----------2----|--L--------|
-----0-----------0---------|--------------------2----|--L--------|
---------------------------|--------------------0----|--L--------|


  E  E  E  E  E  E  E  E     E  E  E  E  E  E  E  E     Q    Q     
--------------0-----------|--------0--2--------2--3--|--L----L----|
--------2-----2-----2--1--|-----1--------1-----------|------------|
--------0-----------0-----|-----0-----------2--------|------------|
-----2-----2-----2--------|--2-----2--0--------------|------------|
--0--------------------0--|--------------------------|------------|
--------------------------|-----------------------3--|--L----L----|


  E  E  E  E  E  E  E  E     E  E  E  E  E  E  E  E   
-----------------------0--|-----------0--2-----------|
--0--1--3-----------------|--3-----3-----------1-----|
--0--------0--------2-----|-----2-----------2-----2--|
-----------------2--------|--------------0-----------|
-----0--2-----0-----------|--0-----------------------|
--3-----------------------|--------------------------|


  E  E  E  E  E  E  E  E     E  E  E  E  E  E  E  E     E  E  H.            
--------------------------|--------0-----------------|--------0------------|
--3--------------0--------|-----0--------------------|--------1------------|
--------0-----0-----0-----|--0--------------0--------|-----0--0------------|
-----0-----0-----------0--|--------------2-----2-----|--2-----2------------|
--------------------------|-----------2-----------2--|--------0------------|
--------3-----------------|--------0-----------------|---------------------|


  W                   Q    E  E  E  E     E  E  E  E     E  E  E  E  Q     
--3----------------|-------------------|--------------|--------------0----|
--4----------------|----------------0--|-----------0--|-----------3-------|
--5----------------|-------------0-----|--------0-----|--------1----------|
--5----------------|----------0--------|-----0--------|-----0-------------|
--3----------------|-------------------|--------------|-------------------|
-------------------|-------3-----------|--1-----------|--0----------------|


  E  E  E  E  E  E  E  E     E  E  E  E  E  E  E  E   
--------------------------|--------------------------|
--------------------1-----|--------1-----------0-----|
--------2-----------0-----|--------0-----------0-----|
-----2-----2-----2-----2--|-----2-----2-----2-----2--|
--0-----------0-----------|--3-----------3-----------|
--------------------------|--------------------------|


  E  E  E  E  E  E  E  E     E  E  E  E  E  E  E  E     E  E  H        Q     
--------2-----------2-----|--3-----------2-----0-----|----------------------|
--------3-----------3-----|--------0--------------0--|--3-----0--------L----|
-----2-----2-----2-----2--|-----------0-----0--------|-----0----------------|
--------------0-----------|-----0--------------------|----------------------|
--0-----------------------|--------------------------|----------------------|
--------------------------|--3-----------3-----------|--3-------------------|


  Verse 3                                                    
  S       E.  S  E.  E  E  E  E     E  E  E  E  E  E  E  E   
---------------------3--------3--|-----------3-----------0--|
---------------------0--------0--|--1--------1--0--------0--|
--------------0h-2---------0-----|--------0-----------0-----|
--0h------2-------------0--------|-----0-----------0--------|
---------------------------------|--------------------------|
---------------------3-----------|--3--------3--3-----------|


  E  E  E   E  E  E  E  E     E  E  E  E  E  E  E.  S  
---------------------------|--------------------------|
--3-----1p--0-----------1--|--0-----------0--0--1-----|
-----0---------------2-----|-----------2--------------|
------------------2--------|--------2---------------2-|
---------------0-----------|-----0-----------0--------|
--3-----3------------------|--------------------------|


  E  E  E  E  E  E  E  E     E  E  E  E  E  E  E  E   
--------------------------|--------------------------|
-----0--0-----1-----------|-----1--0--------0--------|
--2--------2-----2--------|--0-----------0--------2--|
-----------------------2--|-----------2--------0-----|
--------0-----------3-----|--------3-----------------|
--------------------------|--------------------------|


  E  E  E  E  E  E  E  E     E  E     S  E.  S  E.  E  E  E  E   
--------------0--2--3-----|--------|----------------3--------3--|
--3--1--0-----1--0--0-----|--0-----|----------------0--------0--|
-----------2-----2--0-----|-----0--|---------0h-2---------0-----|
-----------------------0--|--------|--0h-2-------------0--------|
--------------------------|--------|----------------------------|
--------------------3-----|--------|----------------3-----------|


  E  E  E  E  E  E  E  E     E  E  E   E  E  E  E  E   
-----------3-----------0--|---------------------------|
--1--------1--0--------0--|--3-----1p--0-----------1--|
--------0-----------0-----|-----0---------------2-----|
-----0-----------0--------|------------------2--------|
--------------------------|---------------0-----------|
--3--------3--3-----------|--3-----3------------------|


  E  E  E  E  E  E  E.  S    E  E  E  E  E  E  E  E   
--------------------------|--------------------------|
--0-----------0--0--1-----|-----0--0-----1-----------|
-----------2--------------|--2--------2-----2--------|
--------2---------------2-|-----------------------2--|
-----0-----------0--------|--------0-----------3-----|
--------------------------|--------------------------|


  E  E  E  E  E  E  E  E     E  E  E  E  E  E  Q     
--------------------------|--------------0--2--3----|
-----1--0--------0--------|--3--1--0-----1--0--0----|
--0-----------0--------2--|-----------2-----2--0----|
-----------2--------0-----|-------------------------|
--------3-----------------|-------------------------|
--------------------------|--------------------3----|


  E  E  E  E  E   E  E  E     Q       E  E  E  E  E  E  E  E   
------------------------3--|--L----|--------------------------|
--0-----1--3--1p--0--0--0--|--L----|--0--1--3--------------1--|
-----0---------------0--0--|--L----|--0--------0--------2-----|
--------2--4--2p--0-----0--|--L----|-----------------2--------|
---------------------------|-------|-----0--2-----0-----------|
---------------------3--3--|--L----|--3-----------------------|


  E  E  E  E  E  E  E  E     E  E  E  E  E  E  E  E   
-----------0--2-----------|--------2-----------------|
--1-----3-----------1-----|--------1-----------------|
-----2-----------2-----2--|-----2-----2--0-----0-----|
--------------0-----------|-----------------0-----4--|
--------------------------|--0-----------------------|
--------------------------|--------------3--------2--|


  E  E  E  E  E  E  E  E     E  E  E  E  E  E  E  E    
--------------------------|---------------------------|
-----------------0-----3--|-----1--------1--0-----0h--|
--------------------0-----|--0--------0--------2------|
--0--4--2-----2--------2--|--------2------------------|
-----------2--------------|-----0-----------0---------|
--------0--------0--------|---------------------------|


  E  E  E  E  E  E  Q       H           E  E  E  E  E  E  E  E   
--------------2----------|-----------|--------------0-----------|
--1-----------1----------|-----------|--------2-----2-----2--1--|
-----2-----2-----2--1----|--L--------|--------0-----------0-----|
--------0-----------2----|--L--------|-----2-----2-----2--------|
--------------------2----|--L--------|--0--------------------0--|
--------------------0----|--L--------|--------------------------|


  E  E  E  E  E  E  E  E     E  E  E  E  E  E  E  E     E  H        E   
--------0--2--------2--3--|-----------2-----0--------|-----------------|
-----1--------1-----------|-----0--------------0--3--|-----------------|
-----0-----------2--------|--------0-----0-----------|-----0-----------|
--2-----2--0--------------|--0-----------------------|--0--------------|
--------------------------|--------------------------|-----------------|
-----------------------3--|-----------3-----------3--|-----------------|


                        ^           ^                  
  S  E.  S  E.  Q       H           W                  
----------------3----|-----------|--3----------------||
----------------0----|-----------|--0----------------||
---------0h-2--------|--0--------|--0----------------||
--0h-2---------------|--0--------|--0----------------||
---------------------|--2--------|-------------------||
----------------3----|--3--------|-------------------||




Duration Legend
---------------
W - whole
H - half
Q - quarter
E - 8th
S - 16th
T - 32nd
X - 64th
. - note dotted
|-n-|  - n-tuplets


Tablature Legend
----------------
L - tied note
x - dead note
g - grace note
(n) - ghost note
> - accentuded note
NH - natural harmonic
AH - artificial harmonic
TH - tapped harmonic
SH - semi harmonic
PH - pitch harmonic
h - hammer on
p - pull off
b - bend
br - bendRelease
pb - preBend
pbr - preBendRelease
brb - bendReleaseBend
\n/ - tremolo bar dip
\n - tremolo bar dive
-/n - tremolo bar Release up
/n\ - tremolo bar inverted dip
/n - tremolo bar return
-\n - tremolo bar Release down
S - shift slide
s - legato slide
/ -  slide into from below or out of upwards
\ -  slide into from above or out of downwards
~ - vibrato
W - wide vibrato
tr - trill
TP - tremolo picking
T - tapping
S - slap
P - pop
< - fade in
^ - brush up
v - brush down
Tap to rate this tab
 
# A B C D E F G H I J K L M N O P Q R S T U V W X Y Z