Song name
# A B C D E F G H I J K L M N O P Q R S T U V W X Y Z

Don Mclean - Bablyon tab

   By...          the wa...   ...ters  the  wa...    ...ters   of  Bab y lon
e--5---3---1---0---1---3---1---0--------0----1---0------------------0--0-----|
B----------------------------------3------------------3---------3------------|
G----------------------------------------------------------5---------------2-|
D----------------------------------------------------------------------------|
A----------------------------------------------------------------------------|
E----------------------------------------------------------------------------|


 We lay down and  we..pt  and  we..ept for thee Zi..on
-8---8----8---8----8--7----7---7----5---5---5----4---5--|
--------------------------------------------------------|
--------------------------------------------------------|
--------------------------------------------------------|
--------------------------------------------------------|
--------------------------------------------------------|


 We re..mem..ber   thee re..mem..ber   thee re..mem..ber   thee Zi..on
-0---1---3----5----------0---1----3--------------0----1------0---0------|
---------------------3-----------------------3--------------------------|
-----------------------------------------5---------------------------2--|
------------------------------------------------------------------------|
------------------------------------------------------------------------|
------------------------------------------------------------------------|


----5---3---1---0---1---3---1---0--------0----1---0------------------0--0----|
------------------------------------3------------------3---------3-----------|
-----------------------------------------------------------5---------------2-|
-----------------------------------------------------------------------------|
-----------------------------------------------------------------------------|
-----------------------------------------------------------------------------|
Tap to rate this tab
 
# A B C D E F G H I J K L M N O P Q R S T U V W X Y Z