Song name
# A B C D E F G H I J K L M N O P Q R S T U V W X Y Z

Don Moen - Thank You Lord tab

This is the intro of the "Thank You Lord" by don moen
If you have any correction kindly do so. God bless us all

Also , This tab is in the Key Of D

For Rhythm Guitar i "Suggest" use the chord

D - A - Bm - G the whole song


Intro : ( You can also use it on verse by just playing some rifts on it if you are lead 
guitarist )


E|------------------------------------------|
B|--------5--7--5--5--7--8--7--7--8--10-----|
G|--7--7---------------------------------7--|
D|------------------------------------------|
A|------------------------------------------|
E|------------------------------------------|


In the original Version , the song will transpose up to 1 whole Note, in this case we 
will go To Key of E.

Rhythm : E - B - C#m - A

This will serve as your outro
E|--------------------------------------------|
B|--------7--9--7--7--9--10--9--9--10--12-----|
G|--9--9-----------------------------------9--|
D|--------------------------------------------|
A|--------------------------------------------|
E|--------------------------------------------|
Tap to rate this tab
# A B C D E F G H I J K L M N O P Q R S T U V W X Y Z