Don Omar - Los Bandoleros tab

Standart Tuning: EADGBe

h = hammeron
p = pulloff
/ = slide

e|--------------3-------1--3--3h4p3----------------1--3/10--11--3-|
B|-3h4p3-----4-------4--------------------1--3--4-----------------|
G|--------5----------------------------0--------------------------|
D|----------------------------------------------------------------|
A|----------------------------------------------------------------|
E|----------------------------------------------------------------|

e|-------------3h4p3--1--3-|
B|-4h6--4h6----------------|
G|-------------------------|
D|-------------------------|
A|-------------------------|
E|-------------------------|

verse:

e|-----------------------------4--3--4--1----4--3--4--1-| 
B|-4--3--4--1----4--3--4--1-----------------------------|
G|------------------------------------------------------| Repeat...
D|------------------------------------------------------|
A|------------------------------------------------------|
E|------------------------------------------------------|

My first Tab. Hope it helps! Don't forget to vote. :)
Tap to rate this tab
 
# A B C D E F G H I J K L M N O P Q R S T U V W X Y Z