Song name
# A B C D E F G H I J K L M N O P Q R S T U V W X Y Z

Don Omar - Bandolero tab

Artist: Don Omar ft Tego Calderon
Title: Bandolero
Tabbed by: David Porianda

There are 2 guitars playing together so it was pretty hard to pick this
out by ear, but I'm pretty sure it's accurate. Also, you need to be good
at fingerpicking to play this song, especially the last part.

E|------------------3-----------3--3h4-3----------------------|
B|--3h4-3--------4--------4--6--------------------------------|
G|---------5--0-----------------------------------------------|
D|------------------------------------------------------------|
A|------------------------------------------------------------|
E|------------------------------------------------------------|

E|------------3-4-6-8-10h11-------------3--3h4-3----3h4-3---3-|
B|------3-4-6---------------8-----4--6--------------------6---|
G|--0-5-------------------------------------------------------|
D|------------------------------------------------------------|
A|------------------------------------------------------------|
E|------------------------------------------------------------|

E|---------------------4--3-4---4--3-4------------------------|
B|--4--3-4---4--3-4-----6--6-6---6--6-6-----------------------|
G|---5--5-5---5--5-5-----5----5---5----5----------------------|
D|----5----5---5----5-----------------------------------------|
A|------------------------------------------------------------|
E|------------------------------------------------------------|

Tap to rate this tab
 
# A B C D E F G H I J K L M N O P Q R S T U V W X Y Z