Song name
# A B C D E F G H I J K L M N O P Q R S T U V W X Y Z

Don Tetto - Adicto Al Dolor Lagrimas tab

e|---------------------------------------|
B|---------------------------------------|
G|---------------------------------------|
D|--7-7------7-7---7-7------7-7----4-5-4-|
A|-5-5--0-4-5-5-4-5-5--0-4-5-5-0-2-------|
E|---------------------------------------|

e|-----------------------------------|
B|-----------------------------------|
G|-----------------------------------|
D|---0-4-4---4-5-4-------------------|
A|0-2---2-0-2-----2-0-0-4-0-0-5-7-5--|x2
E|-----------------------------------|

e|---------------------------------|
B|---------------------------------|
G|---------------------------------|
D|--7-7------7-7---7-7------7-7----|
A|-5-5--0-4-5-5-4-5-5--0-4-5-5-0-2-|
E|---------------------------------|

D                   Bm
dejarte ir seria morir
 D                     Bm
y hazme sufrir puedo vivir

en lagrimas en lagrimas

 GUITARRA LIDER
e|----------------------|
B|----------------------|
G|--7-7-7-7/9-9/111111--| x2
D|----------------------|
A|--5-5-5-5/7-7/9-9-9---|
E|----------------------|

 SEGUNDA GUITARRA
e|---------------------|
B|---------------------|
G|--7-7-7--7-7-7-7-7-7-| x2
D|--7-7-7--7-7-7-7-7-7-|
A|--5-5-5--5-5-5-5-5-5-|
E|---------------------|

 GUITARRA LIDER
e|-----------------------------------------------------|
B|-----------------------------------------------------|
G|--7-6-----------------7-6------------6--------7/9-7--|
D|------9-7-5-4-2-0---------9-7--7-7-7-----7-7---------| x2
A|------------------5----------------------------------|
E|-----------------------------------------------------|

 SEGUNDA GUITARRA
e|----------------------------------------------------------|
B|----------------------------------------------------------|
G|----------------------------------------------------------| X2
D|--9-9-9-9--9-9-9-9-9-9--9-9-9--9-9-9-9--------------------|
A|--9-9-9-9--9-9-9-9-9-9--9-9-9--9-9-9-9--2-0-0-4-0-0-5-7-5-|
E|--7-7-7-7--7-7-7-7-7-7--7-7-7--7-7-7-7--------------------|

D                                             Bm
todo comenzo como una historia ke llamamos el amor
                                                   D
donde tu y yo nos entregamos cuerpo y mente sin razon
                                        Bm
komenzazte a komportarte de manera inusual
                                              A
palabras ke pronunciaste no teniamos ke eskuchar


   GUITARRA LIDER (FONDO)

e|-----------------------------------|
B|-----------------------------------|
G|-----------------------------------|
D|-----------------------------------|
A|-7-5-7-5--7-5-7-9--7-5-7-5--5-5-5--|
E|-----------------------------------|

e|-----------------------------------|
B|-----------------------------------|
G|-----------------------------------|
D|-9-7-9-7--9-7-9-7--9-7-9-7--9-9-9--|
A|-----------------------------------|
E|-----------------------------------|

e|-----------------------------------|
B|-7-5-7-5--7-5-7-5--7-5-7-5--7-7-7--|
G|-----------------------------------|
D|-----------------------------------|
A|-----------------------------------|
E|-----------------------------------|

e|------------------------------------|
B|------------------------------------|
G|------------------------------------|
D|--9-7-9-7--9-7-9-7--9-7-9-7--9-9-9--|
A|------------------------------------|
E|------------------------------------|

 PRE CORO
A                  (A)                        Bm        (Bm)
talvez todo fue un error y no fue kulpa del amooooooooooooor
A                      (A)                     D
hoy por fin me he dado cuenta soy adicto al dolooooooooooooor

e|----------------------|
B|----------------------|
G|----------------------|
D|-------------------7~-|
A|--2-0-0-4-0-0-5-7--7~-|
E|-------------------5~-|

KORO

D                  Bm
dejarte ir seria morir
                       D
no respirar nunka jamaass
                        Bm
y hazme sufrir puedo vivir
   G                   A
en lagrimas en lagrimas

e|--------------------------|
B|--------------------------|
G|--77-77-77-77-77-77-77-77-|
D|--77-77-77-77-77-77-77-77-|
A|--55-55-55-55-55-55-55-55-|
E|--------------------------|

D|--------------------------|
A|--------------------------|
E|--7-5-7-5-7-5--7-5-7-5-7--|

D|-------------------------|
A|-----------------5-------|
E|--7-5-7-5-7-5--3---5-7---|

D|------------------|
A|--2-0-0-4-0-0-5-7-|
E|------------------|

GUITARRA LIDER
e|----------------------|
B|----------------------|
G|--7-7-7-7/9-9/111111--|
D|----------------------|
A|--5-5-5-5/7-7/9-9-9---|
E|----------------------|

 SEGUNDA GUITARRA
e|---------------------|
B|---------------------|
G|--7-7-7--7-7-7-7-7-7-|
D|--7-7-7--7-7-7-7-7-7-|
A|--5-5-5--5-5-5-5-5-5-|
E|---------------------|

 GUITARRA LIDER
e|-----------------------------------------------------|
B|-----------------------------------------------------|
G|--7-6-----------------7-6------------6--------7/9-7--|
D|------9-7-5-4-2-0---------9-7--7-7-7-----7-7---------|
A|------------------5----------------------------------|
E|-----------------------------------------------------|

 SEGUNDA GUITARRA
e|-------------------------------------------------------|
B|-------------------------------------------------------|
G|-------------------------------------------------------|
D|--9-9-9-9--9-9-9-9-9-9--9-9-9--9-9-9-9-----------------|
A|--9-9-9-9--9-9-9-9-9-9--9-9-9--9-9-9-9--2-0-0-4--5-7-5-|
E|--7-7-7-7--7-7-7-7-7-7--7-7-7--7-7-7-7-----------------|

D                                               Bm
se ke kon el tiempo haras ke todo todo esto sea peor
                                                   D
buskare una excusa un motivo enkontrare una explikacion
                                        Bm
para estar kontigo y olvidar ke la solucion
                                                       A
no estaba en el kastigo simplemente en alejarnos tu y yo

   GUITARRA LIDER (FONDO)

G|-----------------------------------|
D|-----------------------------------|
A|-7-5-7-5--7-5-7-9--7-5-7-5--5-5-5--|
E|-----------------------------------|

G|-----------------------------------|
D|-9-7-9-7--9-7-9-7--9-7-9-7--9-9-9--|
A|-----------------------------------|
E|-----------------------------------|

e|-----------------------------------|
B|-7-5-7-5--7-5-7-5--7-5-7-5--7-7-7--|
G|-----------------------------------|
D|-----------------------------------|
A|-----------------------------------|
E|-----------------------------------|

G|------------------------------------|
D|--9-7-9-7--9-7-9-7--9-7-9-7--9-9-9--|
A|------------------------------------|
E|------------------------------------|


D|-------------------7~-|
A|--2-0-0-4-0-0-5-7--7~-|
E|-------------------5~-|

PRE CORO
A                  (A)                        Bm        (Bm)
talvez todo fue un error y no fue kulpa del amooooooooooooor
A                      (A)                     D
hoy por fin me he dado cuenta soy adicto al dolooooooooooooor

D|-------------------7~-|
A|--2-0-0-4-0-0-5-7--7~-|
E|-------------------5~-|

KORO

D                  Bm
dejarte ir seria morir
                       D
no respirar nunka jamaass
                        Bm
y hazme sufrir puedo vivir
   G                   A
en lagrimas en lagrimas

e|--------------------------|
B|--------------------------|
G|--77-77-77-77-77-77-77-77-|
D|--77-77-77-77-77-77-77-77-|
A|--55-55-55-55-55-55-55-55-|
E|--------------------------|

D|--------------------------|
A|--------------------------|
E|--7-5-7-5-7-5--7-5-7-5-7--|

D|------------------------7~
A|----------------5-------7~
E|--7-5-7-5-7-5--3---5-7--5~

D                  Bm
dejarte ir seria morir
                        Bm
y hazme sufrir puedo vivir

e|---------------------------------------|
B|---------------------------------------|
G|---------------------------------------|
D|--7-7------7-7---7-7------7-7----4-5-4-|
A|-5-5--0-4-5-5-4-5-5--0-4-5-5-0-2-------|
E|---------------------------------------|

e|-----------------------------------|
B|-----------------------------------|
G|-----------------------------------| x2
D|---0-4-4---4-5-4-------------------|
A|0-2---2-0-2-----2-0-0-4-0-0-5-7-5--|
E|-----------------------------------|

D                  Bm
dejarte ir seria morir
                       D
no respirar nunka jamaass
                        Bm
y hazme sufrir puedo vivir
   G                   A
en lagrimas en lagrimas

e|--------------------------|
B|--------------------------|
G|--77-77-77-77-77-77-77-77-|
D|--77-77-77-77-77-77-77-77-|
A|--55-55-55-55-55-55-55-55-|
E|--------------------------|

D|--------------------------|
A|--------------------------|
E|--7-5-7-5-7-5--7-5-7-5-7--|

D|--------------------------|
A|----------------5---------| X2
E|--7-5-7-5-7-5--3---5-7----|

D                           Bm
lai lai lai lai lai lai lai lai
                         D
kiero esperar sin preguntaaaaar
                            Bm
lai lai lai lai lai lai lai lai
                         D
en lagrimas en lagrimas...

e|---------------------|
B|---------------------|
G|--7~-----------------|
D|--7~-----------------|
A|--5~-9-7-5-7-5-4-5-4-|
E|---------------------|
Tap to rate this tab
# A B C D E F G H I J K L M N O P Q R S T U V W X Y Z