Song name
# A B C D E F G H I J K L M N O P Q R S T U V W X Y Z

Donald Fagen - I tab

[RYTHM~ POWER CHORD: E C G D]--> INTRO and CHORUS

[RYTHM~ CHORD: Em C G D] --> VERSE, SOLO part, BRIDGE
*** Em C  G  D
e|--0--0--0--0-------------|
B|--3--3--3--3-------------|
G|--0--0--0--2-------------|
D|--2--x--0--0-------------|
A|--2--3--x----------------|
E|--0-----3----------------|

____________________________________________________________________________
(Just play with G major scale or Em scale)
~LEAD~

Intro.1
e|-------------------------------------------------------------------------|
B|-----8---------------------------8---------------------------------------|
G|-----------7------7-9-b9d-7~----------7----------------------------------|
D|--7/9---7/9---7h9-------------7/9--7/9------5-7--4h5p4-------------------|
A|-----------------------------------------5h7----------5------------------|
E|-------------------------------------------------------------------------|

Intro.2 [you can also play this riff after chorus 1]
e|-------------------------------------------------------------------------|
B|--7h8-7------------------------------------------------------------------|
G|-------7--5-4-5--5/7-----------------------------------------------------|
D|---------------------7-9-7-/5-5-7--7/9--7-5------5-7--4h5p4--------------|
A|----------------------------------------------5h7----------5-------------|
E|-------------------------------------------------------------------------|

*note: it's better to improvise your own guitar solo here, just play with G major and Em scales...

SEQUENCE:
-intro 1
-intro 2
-verse 1
-verse 2
-chorus
-intro(2)
-verse 3
-chorus
-solo part
-bridge
-chorus

| /  slide
| b  bend
| d  put the bended string down
| h  hammer-on
| p  pull-off
| ~  vibrato
| +  harmonic
| x  Mute note
============================================================================
i wud lyk to greet my klasm8s,frndm8s, and bandm8s from san beda alabang...Hi! to 
myka, ysa, law, kitch, jorgia, aya, angelica,SAMPaloc, bea T., bea O., bonj, johanne, john 
jopao l., alinne, justin E....atbp.
~mejo na-hyper lng akong bumati sa inyo!
thnx for viewing my tab! ^_^ hope u lyk it!
~PANDA
Tap to rate this tab
# A B C D E F G H I J K L M N O P Q R S T U V W X Y Z