Song name
# A B C D E F G H I J K L M N O P Q R S T U V W X Y Z

Donavon Frankenreiter - Pass It Around tab

Donavon Frankenreiter - Pass It Around, Tabbed By Stroem

Great song from a great album, enjoy!


Intro:

F  -  Gm
                 
e|-------------------------------------------------------------------------|
B|-------------------------------------------------------------------------|
G|-14-12---14b-12-10----10--14b-------14-12---14b-12-10-12b-10------10h12--|
D|--------------------10-------12------------------------------10h12-------|
A|-----------------------------------------------------------------------12|
E|-------------------------------------------------------------------------|

ALT:

e|-------------------------------------------------------------------------|
B|--10-8--10b-8-6----6-6/10--------10-8---10b-8-6-8b-6----6h8--------------|
G|------------------5-------7--------------------------5h7----7------------|
D|-------------------------------------------------------------------------|
A|-------------------------------------------------------------------------|
E|-------------------------------------------------------------------------|


Then

F  -  Gm

e|--------------------------------------------------------------------|
B|--------------------------------------------------------------------|
G|----10--14-12--14b-12-10---10--14-12--------------------------------| x2
D|--10---------------------10-----------------------------------------| 
A|--------------------------------------------------------------------|
E|--------------------------------------------------------------------|

Verse:

F           Gm                 C
Line me up don't let me down,

             Bb                      F   
C'mon let me see you pass it around.

                      Gm              C
We're gonna dance and sing together,

         Bb            F
One more time tonight.

          Gm                  C
Imagine a world where people,

                 Bb           
Get together and never fight.


Chorus:

F           Gm          F
Do what you want to,

              Gm        F
Don't do what you see.

          Gm                       C
Do what's right for you and I'll,

          Bb                F
Do what's right for me yeah

            Gm                    F
Pass it around, just pass it around
                 Gm                     F.........
And pass it around, just pass it around


Here's to all the ones we've lost,
(whatever you wanna think).
Wherever you may be,
I hope heaven is treating you fine fine.
Gonna meet a lot of friends along the way,
some will go and some will stay yeah.

(Chorus)
Do what you want to,
Don't do what you see.
Do what's right for you and I'll,
Do what's right for me yeah

Just do what you want to,
Don't do what you see.
Do what's right for you and I'll,
Do what's right for me yeah

And pass it around, pass it around,
pass it around, pass it around,
pass it around, pass it around,
pass it around, just pass it around
Tap to rate this tab
# A B C D E F G H I J K L M N O P Q R S T U V W X Y Z