Song name
# A B C D E F G H I J K L M N O P Q R S T U V W X Y Z

Donavon Frankenreiter - Glow chords

Highlighted       Show chord diagrams
Glow - Donavon Frankenreiter

------------------------------------------------------

new song from his new album: Glow!

not sure about the pre-chorus, so if you have suggestions,
send me a message, or make a new tab and let me know!

there's three little riffs in there...I think...
ah well, here they are:


[Riff 1] Day Light So Bright
e|-------------|
B|-9-10-9------|
G|--------9----|
D|-------------|
A|-------------|
E|-------------|


[Riff 2]
e|-----------------------------|
B|-9-7----9-7-----10---9---7---|
G|-----9------9----------------|
D|-----------------------------|
A|-----------------------------|
E|-----------------------------|


[Riff 3]
e|--------|------|------------------|
B|-9-7----|------|---10---9---7-----|
G|-----9--|-(x6)-|------------------|
D|--------|------|------------------|
A|--------|------|------------------|
E|--------|------|------------------|

------------------------------------------------------

[intro]
E E A B 2x


[verse 1]
E				                  A			B	    E      A B 
I wanna be your rush love,  I wanna hold you to the stars
E							A			B	E      A B
the way light shines in the park on a sunday afternoon
E									A
I want you to be big, want you to be gold,
		B			E   A   B
I want you to be, sky 



[pre-chorus]
    C#m
the more things change
    A         B
the more they shine

[chorus]
E					B
GLOW, I wanna see you GLOW
			   C#m		          A    B
I wanna see your daylight shining all around your
E				        B				    C#m
HEART I wanna see you glow, I wanna see your daylight so bright
A	B			
all around my soul
E    E    A    B
[riff2]


[verse 2]									   [Riff2]
E							A     B				E    A B
I wanna see you soar love, oh, I wanna see you fly
E						 A    B        E		      A   B
kick of the world in the dark and just dive, just dive



[pre-chorus]
    C#m
the more things change
    A         B
the more they shine

[chorus]
E					B
GLOW, I wanna see you GLOW
			   C#m		          A    B
I wanna see your daylight shining all around your
E				        B				    C#m
HEART I wanna see you glow, I wanna see your daylight so bright
A	B			A
all around my soul



[bridge]
A	     B
I'll run this world with you
E					   B
(GLOW, I wanna see you GLOW)
A		     B
And I'll run this world with you
E						B
(GLOW, I wanna see you GLOW)
E		B		C#m		A  B
[riff 3]


[chorus]
E					B
GLOW, I wanna see you GLOW
			   C#m		          A    B
I wanna see your daylight shining all around your
E				        B				    C#m
HEART I wanna see you glow, I wanna see your daylight so bright
A	B		  E					B	
all around my GLOW, I wanna see you GLOW
			   C#m		          A    B
I wanna see your daylight shining all around your
E				        B				    C#m
HEART I wanna see you glow, I wanna see your daylight so bright
A	B			E    A   B [riff 2]
all around my soul
Tap to rate this tab
 
# A B C D E F G H I J K L M N O P Q R S T U V W X Y Z