Song name
# A B C D E F G H I J K L M N O P Q R S T U V W X Y Z

Donavon Frankenreiter - On My Mind tab

Hey guys
This is my First tab, and Iím pretty sure that this is correct. Sorry for my English, 
thatís not so good because Iím from Holland.

If you have questions/corrections/suggestions for other tabs, mail me at

Bonnoh1@hotmail.com

Thanks
________________________________________________________________________________________________


Verse (Ahh baby, lets get down tonightÖ)

    C#m           Bm7

E:---0-----------2------------------|
B:---2-----------3------------------|
G:---1-----------2------------------|
D:---2-----------4------------------|
A:---0-----------2------------------|
E:----------------2-----------------|

Pre Chorus  (even though I canít see you, all the time)

     D         Dm        A

E:---2----x----1----x----0----x--|
B:---3----x----3----x----2----x--|
G:---2----x----2----x----2----x--|
D:---0----x----0----x----2----x--|
A:---x----x----x----x----x----x--|
E:---x----x----x----x----x----x--|

Lick 1

eIó5h7p5----0h2p0-------------------------------------------------------------------|I
bI---------------------------0h2p0--------------------------------------------------|I
gI---------------------------------------2------------------------------------------|I
dI----------------------------------------------------------------------------------|I
aI----------------------------------------------------------------------------------|I
EI----------------------------------------------------------------------------------|I


 (I got to let you know you're on my mind)

D         Dm        A

E:---2----x----1----x----0----x--|
B:---3----x----3----x----2----x--|
G:---2----x----2----x----2----x--|
D:---0----x----0----x----2----x--|
A:---x----x----x----x----x----x--|
E:---x----x----x----x----x----x--|

Lick 2

eI---------------------------5------------------------------------------------------|I
bI----------------------------------------------------------------------------------|I
gI----------------2h4---------------------------------------------------------------|I
dI----------2h4---------------------------------------------------------------------|I
aI---2h4----------------------------------------------------------------------------|I
EI----------------------------------------------------------------------------------|I




Chorus (On my mind on my mind again)

     A       G       Bm(7)

E:---0---x---3---x---2--------|
B:---2---x---0---x---3--------|
G:---2---x---0---x---4--------|
D:---2---x---0---x---4--------|
A:---0---x---2---x---2--------|
E:---0---x---3---x---2--------|

(But I got to let you know that Iíll never let you go)

    C#m      D
E:---4-------5----|
B:---4-------7----|
G:---5-------7----|
D:---6-------7----|
A:---6-------5----|
E:---4-------5----|


Listen to the song, for timing, and playing style.
Here are the lyrics,
i was to lazy to put the chords and riffs in the lyrics,
but im sure you will be fine.

Verse:

Oh baby let's get down tonight
Every time we do it just feels so right
Lets go sit underneath that willow tree
Oh baby just you and me

Even though I can't see you all the time
I got to let you know you're on my mind
Even though I can't see you all the time
I got to let you know you're on my mind

Girl you're on my mind, on my mind again
On my mind, on my mind again
You're on my mind, on my mind again
But I got to let you know that ill never let you go

You take those clouds and make a sunny day
I love to watch you do it just your own way
You take my day into night
You still give me all that loving light, loving light, yeah

Even though I can't see you all the time
I got to let you know you're on my mind
Even though I can't see you all the time
I got to let you know you're on my mind

Girl you're on my mind, on my mind again
Woman don't you know
You're on my mind, you're on my mind again
Oh I got to let you know
You're on my mind, you're on my mind again
Because you're on my mind, on my mind again
Tap to rate this tab
 
# A B C D E F G H I J K L M N O P Q R S T U V W X Y Z