Song name
# A B C D E F G H I J K L M N O P Q R S T U V W X Y Z

Donavon Frankenreiter - Pass It Around tab

-------------------------------------------------------------------------------
                            Pass It Around - Donavon Frankenreiter
-------------------------------------------------------------------------------
Tabbed by: M Sain 
E-mail:

Tuning: Standard

e|---------------------------------------------------------------------------|
B|-----------------------10--------------------------------------------------|
G|-------10--12/14--12------12--10-----------10--12/14-----------------------|
D|----10-----------------------------12--10--------------10------------------|
A|---------------------------------------------------------------------------|
E|---------------------------------------------------------------------------|

e|---------------------------------------------------------------------------|
B|-------------------------11--10--------------------------------------------|
G|--------10--12/14--12-----------12--10--10h12--10--------10h12--10---------|
D|----10----------------------------------------------10h12------------------|
A|---------------------------------------------------------------------------|
E|---------------------------------------------------------------------------|



************************************

| /   slide up
| \   slide down
| h   hammer-on
| p   pull-off
| ~   vibrato
| +   harmonic
| x   Mute note
| b   Bend
| pb  Pre-bend
| br  Bend release
| pbr Pre-bend release
| brb Bend release bend

************************************
Tap to rate this tab
 
# A B C D E F G H I J K L M N O P Q R S T U V W X Y Z