Song name
# A B C D E F G H I J K L M N O P Q R S T U V W X Y Z

Donavon Frankenreiter - Whatcha Know About tab

Highlighted       Show chord diagrams
-------------------------------------------------------------------------------
			     SONG NAME -What'cha Know About
-------------------------------------------------------------------------------

Tabbed by: JG

Tuning:standard

Listen for the strum pattern...

I just wanted to add another version to the bridge. This is another way to play
 it without having a lead guitar...

Bridge:
      D        D  C        C  G        ?  G
e|----2--------2--0--------0--3--------x--3-----|
B|----3--------3--1--------1--0--------x--0-----|
G|----2--------2--0--------0--0--------0--0-----|
D|----0--------0--2--------2--0--------2--0-----|
A|----0--------0--3--------3--2--------3--2-----|
E|----x--------x--x--------x--3--------0--3-----|

      D        D  C        C  G        ?  G
e|----2--------2--0--------0--3--------x--3-------------------|
B|----3--------3--1--------1--0--------x--0-------------------|
G|----2--------2--0--------0--0--------0--0-------------------|
D|----0--------0--2--------2--0--------2--0-------------0-----|
A|----0--------0--3--------3--2--------3--2--------2h3--------|
E|----x--------x--x--------x--3--------0--3-----3----------3--|


Then continue on with the Chorus (Em/F/G)...

To add a little flavor to the chorus, slide back down to Em...

Chorus:
      Em     F       G
e|----0------1-------3-------------------|
B|----0------1-------3-------------------|
G|----0------2-------4-------------------|
D|----2------3-------5-/----2------------|
A|----2------3-------5-/----2------------|
E|----x------1-------3-------------------|

comments/corrections?
-JG
Tap to rate this tab
# A B C D E F G H I J K L M N O P Q R S T U V W X Y Z