Song name
# A B C D E F G H I J K L M N O P Q R S T U V W X Y Z

Donna Summer - I Feel Love tab

http://www.donnasummer.com/
 
E||-------||-----------------------------------|
B||-------||-----------------------------------|
G||-------||*----------------------------------|
D||-------||*----------------------------------|
A||-------||---5-5-5-5-0-0-3-3-5-5-5-5-0-0-3-3-|
E||-------||-----------------------------------|
 
-----------------------------------||----------------------------------|
-----------------------------------||----------------------------------|
----------------------------------*||----------------------------------|
----------------------------------*||----------------------------------|
--5-5-5-5-0-0-3-3-5-5-5-5-0-0-3-3--||--7-7-7-7-----5-5-7-7-7-7-----5-5-|
-----------------------------------||----------7-7-------------7-7-----|

----------------------------------|
----------------------------------|
----------------------------------|
----------------------------------|
--9-9-9-9-----7-7-9-9-9-9-----7-7-|
----------9-9-------------9-9-----|

----------------------------------------------|
----------------------------------------------|
----------------------------------------------|
----------------------------------------------|
--11-11-11-11-------9-9-11-11-11-11-------9-9-|
--------------11-11-----------------11-11-----|

--------------------------------------------------||
--------------------------------------------------||
--------------------------------------------------||
--------------------------------------------------||
--13-13-13-13-------11-11-13-13-13-13-------11-11-||
--------------13-13-------------------13-13-------||


Tap to rate this tab
# A B C D E F G H I J K L M N O P Q R S T U V W X Y Z