Song name
# A B C D E F G H I J K L M N O P Q R S T U V W X Y Z

Donnas - Dont Wait Up For Me tab

Help us improve GuitareTab! Take a short survey!
Transcribed by B M
	



Gtr I (E A D G B E) - 'Rhythm'
Gtr II (E A D G B E) - 'lead'

 4/4
  Gtr I
  Wx2
|--------|
|--------|
|--------|
|--------|
|--------|
|--------|


   Q   Q.    E  E  E    E E E  E  H      Q  E  Q  E E E   Q  Q   Q.    E
|--------------------|-----------------|----------------|-----------------|
|--------------------|-----------------|----------------|-----------------|
|--------------------|-----------------|----------------|-----------------|
|-11--11----11-14s11-|-11s9-9s11-11----|----------------|----9--11----11--|
|--9---9-----9-12s=9-|--9s7-7s=9--9----|-7--7-------7-9-|----7---9-----9--|
|--------------------|-----------------|------10--9-----|-----------------|


  E  E Q   Q  E E   E E  E  E  H      Q  E  Q  E E E   Q  Q   Q.    E
|-----------------|-----------------|----------------|------------------|
|-----------------|-----------------|----------------|------------------|
|-----------------|-----------------|----------------|------------------|
|---11-9--11--x-x-|---x-14s11-11----|----------------|----9--11----11\--|
|----9-7---9--x-x-|---x-12s=9--9----|-7--7-------7-9-|----7---9-----9\--|
|-----------------|-----------------|------10--9-----|------------------|


    $
       PM--|              PM--|
    Q  E E E E E E   +Q   E E E E E E
||-----------------|------------------|
||o----------------|------------------|
||-----------------|------------------|
||-----------------|------------------|
||o-4--4-4-4-4---4-|-(4)--4-4-4-4---4-|
||--2--2-2-2-2---2-|-(2)--2-2-2-2---2-|


                        1.
       PM------|
   Q   E  E  E  E  E E   Q  E  E  Q   Q
|----------------------|------------------||
|----------------------|-----------------o||
|----------------------|------------------||
|----------------------|------------------||
|-12--12-12-12-12-12s9-|-9--9s11-11--11--o||
|-10--10-10-10-10-10s7-|-7--7s=9--9---9---||


  2.
  Q  E  E  Q   E  E    H.       E  E    +H      +E  E E E
|-------------------|----------------|--------------------|
|-------------------|----------------|--------------------|
|-------------------|----------------|--------------------|
|-------------------|----------------|--------------------|
|-9--9s11-11--11s12-|-12-------12s14-|-(14)----(14)---7-9-|
|-7--7s=9--9---9s10-|-10-------10s12-|-(12)----(12)-9-----|


  H.      +E  E   +E  E +E  Q  E Q     H.       +E   E    +H      +E  E E E
|---------------|-------------------|------------------|---------------------|
|---------------|-------------------|------------------|---------------------|
|---------------|-------------------|------------------|---------------------|
|---------------|-------------------|------------------|---------------------|
|-4-------(4)-2-|-(2)----------4----|-12-------(12)-14-|-(14)----(14)-9-7-9--|
|-2-------(2)---|-----5-(5)-2--2-0--|-10-------(10)-12-|-(12)----(12)--------|


   Q   Q.    E  E  E    E E E  E  H      Q  E  Q  E E E   Q  Q   Q.    E
|--------------------|-----------------|----------------|-----------------|
|--------------------|-----------------|----------------|-----------------|
|--------------------|-----------------|----------------|-----------------|
|-11--11----11-14s11-|-11s9-9s11-11----|----------------|----9--11----11--|
|--9---9-----9-12s=9-|--9s7-7s=9--9----|-7--7-------7-9-|----7---9-----9--|
|--------------------|-----------------|------10--9-----|-----------------|


                                                                To Coda
  E  E Q   Q  E E   E E  E  E  H      Q  E  Q  E E E   Q  Q   Q.    E
|-----------------|-----------------|----------------|------------------|
|-----------------|-----------------|----------------|------------------|
|-----------------|-----------------|----------------|------------------|
|---11-9--11--x-x-|---x-14s11-11----|----------------|----9--11----11\--|
|----9-7---9--x-x-|---x-12s=9--9----|-7--7-------7-9-|----7---9-----9\--|
|-----------------|-----------------|------10--9-----|------------------|


                            D.S. al Coda    &
  PM--------------------------|
  E E E E E E E E   E E E E E E  E   E      H    +E  E E E
|-----------------|---------------------||-----------------|
|-----------------|---------------------||o----------------|
|-----------------|---------------------||-----------------|
|-----------------|---------------------||--7----(7)-7---4-|
|-4-4-4-4-4-4-4-4-|-4-4-4-4-4-4---------||o-5----(5)-5---2-|
|-2-2-2-2-2-2-2-2-|-2-2-2-2-2-2-<2>-<2>-||-----------------|


                  1.
  +H     E E E E   H    +E  E E E   E  E  E  E  Q   Q
|----------------|----------------|---------------------||
|----------------|----------------|--------------------o||
|----------------|----------------|---------------------||
|-(4)----4-4-4-4-|-7----(7)-7-7s9-|-9s11-11s14-14\------||
|-(2)----2-0-2-0-|-5----(5)-5-5s7-|-7s=9--9s12-12\-----o||
|----------------|----------------|---------------------||


  2.
                      Gtr II
  W          W            Q   E  E  Q   E  E
|----------|----------|----------------------|
|----------|----------|----------------------|
|----------|----------|----------------------|
|-7--------|-9--------|------14----16--14-16-|
|-5--------|-7--------|-/16-----16-----------|
|----------|----------|----------------------|


                  ~~~~~~~~~~
  E  E  E  E  Q   Q     +E   E  E  E  E  E  E  E
|--------------------|------------------------------|
|--------------------|------------------------------|
|---14---------------|---------------14----14-16b18-|
|------16----14--16--|-(16)-16-14-16----16----------|
|---------16---------|------------------------------|
|--------------------|------------------------------|


  E  E     +S   S  E  S  S  S  S  Q
|------------------------------------|
|------------------------------------|
|---16b18r(16)p14----14h16p14----14--|
|-----------------16----------16-----|
|------------------------------------|
|------------------------------------|


   Q   E  E  E     E  E     E    E     E  E     E  E     E  E     E
|-----------------------------|-------14-------14-------14-------14-|
|-----------------14-------14-|-------------------------------------|
|-----14-16-16b18----16b18----|-16b18----16b18----16b18----16b18----|
|-16--------------------------|-------------------------------------|
|-----------------------------|-------------------------------------|
|-----------------------------|-------------------------------------|


   E     E  E     E  E     E  E     E
|-------14-14----14-14----14-14----14-|
|-17b19----17b19----17b19----17b19----|
|-------------------------------------|
|-------------------------------------|
|-------------------------------------|
|-------------------------------------|


                                        ~~~~~~~~~~~~~~~~~~~~~
   E     +E   E  E     +E   E  E  E    +W                +H.            +Q
|-17b19r(17)-14-17b19r(17)-14----14-|-(14)------------|-(14)-----------(14)\---|
|-----------------------------17----|-----------------|------------------------|
|-----------------------------------|-----------------|------------------------|
|-----------------------------------|-----------------|------------------------|
|-----------------------------------|-----------------|------------------------|
|-----------------------------------|-----------------|------------------------|
|
|                                   Gtr I
|  W                                    H.       E  E    +H      +E  E   E   E
|-----------------------------------|-----------------|------------------------|
|-----------------------------------|-----------------|------------------------|
|-----------------------------------|-----------------|------------------------|
|-----------------------------------|-----------------|------------------------|
|-----------------------------------|--12-------12s14-|-(14)----(14)-----7---9-|
|-----------------------------------|--10-------10s12-|-(12)----(12)-9---------|


  H.      +E  E   +E  E +E  Q  E Q     H.       +E   E
|---------------|-------------------|------------------|
|---------------|-------------------|------------------|
|---------------|-------------------|------------------|
|---------------|-------------------|------------------|
|-4-------(4)-2-|-(2)----------4----|-12-------(12)-14-|
|-2-------(2)---|-----5-(5)-2--2-0--|-10-------(10)-12-|


   W          W          H    E E E E
|-----------|----------|--------------|
|-----------|----------|--------------|
|-----------|----------|--------------|
|-----------|----------|--------------|
|-14--------|----------|----------7-9-|
|-12--------|----------|--------9-----|


     Q   Q.    E  E  E    E E E  E  H      Q  E  Q  E E E   Q  Q   Q.    E
||---------------------|-----------------|----------------|----------------|
||o--------------------|-----------------|----------------|----------------|
||---------------------|-----------------|----------------|----------------|
||--11--11----11-14s11-|-11s9-9s11-11----|----------------|----9--11----11-|
||o--9---9-----9-12s=9-|--9s7-7s=9--9----|-7--7-------7-9-|----7---9-----9-|
||---------------------|-----------------|------10--9-----|----------------|


                                                      1.,2.,3.
  E  E Q   Q  E E   E E  E  E  H      Q  E  Q  E E E   Q  Q   Q.    E    4x
|-----------------|-----------------|----------------|-------------------||
|-----------------|-----------------|----------------|------------------o||
|-----------------|-----------------|----------------|-------------------||
|---11-9--11--x-x-|---x-14s11-11----|----------------|----9--11----11\---||
|----9-7---9--x-x-|---x-12s=9--9----|-7--7-------7-9-|----7---9-----9\--o||
|-----------------|-----------------|------10--9-----|-------------------||


  4.
  Q  Q   Q  Q
|----------------*|
|----------------*|
|----------------*|
|----9--11-------*|
|----7---9-------*|
|----------------*|



Duration Legend
---------------
W - whole; H - half; Q - quarter; E - 8th; S - 16th; T - 32nd; X - 64th; a - acciaccatura
+ - note tied to previous; . - note dotted; .. - note double dotted
Uncapitalized letters represent notes that are staccato (1/2 duration)
Irregular groupings are notated above the duration line
Duration letters will always appear directly above the note/fret number it represents the
duration for.  Duration letters with no fret number below them represent rests.  Multi-
bar rests are notated in the form Wxn, where n is the number of bars to rest for.  Low
melody durations appear below the staff

Tablature Legend
----------------
 h   - hammer-on
 p   - pull-off
 b   - bend
 pb  - pre-bend
 r   - bend release (if no number after the r, then release immediately)
 /\  - slide into or out of (from/to "nowhere")
 s   - legato slide
 S   - shift slide
 - natural harmonic
[n]  - artificial harmonic
n(n) - tapped harmonic
 ~   - vibrato
 tr  - trill
 T   - tap
 TP  - trem. picking
 PM  - palm muting
\n/  - tremolo bar dip; n = amount to dip
 \n  - tremolo bar down
 n/  - tremolo bar up
/n\  - tremolo bar inverted dip
 =   - hold bend; also acts as connecting device for hammers/pulls
 <> - volume swell (louder/softer)
 x   - on rhythm slash represents muted slash
 o   - on rhythm slash represents single note slash

Misc Legend
-----------
 |  - bar
||  - double bar
||o - repeat start
o|| - repeat end
*|  - double bar (ending)
 :  - bar (freetime)
 $  - Segno
 &  - Coda
Tempo markers -  = BPM(8/16=s8/s16), where s8 = swing 8ths, s16 = swing 16ths

Related for Dont Wait Up For Me tab