Song name
# A B C D E F G H I J K L M N O P Q R S T U V W X Y Z

Donnas - Girl Talk tab

Artist - The Donnas
Album - Bitchin'
song - Girl Talk
Tuning - Standard
Tabbed by Iggy

- - - = palm mute
* = Harmonic
^ v = bend release
h = Hammer on
p = Pull off

Intro Riff
e------------------------|
B------------------------|
G-12/14-14--9-9-9/10-10--|
D-12/14-14--9-9-9/10-10--|X4
A-10/12-12--7-7-7/-8--8--|
E------------------------|

Verse
e------------------------|
B------------------------|
G------------------------|
D-7-7-7-7-7-7-2-2-2/3-3--|
A-7-7-7-7-7-7-2-2-2/3-3--|
E-5-5-5-5-5-5-0-0-0---1--|
  -----------------

e-------------------|
B-------------------|
G-------------------|
D-7-7-7--2-2-2-3----|
A-7-7-7--2-2-2-3----|
E-5-5-5--0-0-0-1-1*-|

2nd time

e-------------|
B-------------|
G-------------|
D-7-7-7--5-5--|
A-7-7-7--5-5--|
E-5-5-5--3-3--|

Pre-Chorus
"UP and down the halls..."
e----------------|
B----------------|
G----------------|
D-3-3-3-3-3-3-5--|
A-3-3-3-3-3-3-5--|
E-1-1-1-1-1-1-3--|

e------------------|
B------------------|
G------------------|
D-7-7-7-7-7-7-5-5--|
A-7-7-7-7-7-7-5-5--|
E-5-5-5-5-5-5-3-3--|

e------------|
B------------|
G------------|
D-3-3-3-3-2~-|
A-3-3-3-3-2~-|
E-1-1-1-1-0~-|

Chorus
e------------------------|
B------------------------|
G-12/14-14--9-9-9/10-10--|
D-12/14-14--9-9-9/10-10--|X4
A-10/12-12--7-7-7/-8--8--|
E------------------------|

"G-I-R-L T-A-L-K - girls talk"
e----------------------|
B----------------------|
G----------------------|
D-7-7-7-7-7-7-10-5--7~-|
A-7-7-7-7-7-7-10-5--7~-|
E-5-5-5-5-5-5--8-3--5~-|
    ---   ---

Verse
e------------------------|
B------------------------|
G------------------------|
D-7-7-7-7-7-7-2-2-2/3-3--|
A-7-7-7-7-7-7-2-2-2/3-3--|
E-5-5-5-5-5-5-0-0-0---1--|
  -----------------

e-------------------|
B-------------------|
G-------------------|
D-7-7-7--2-2-2-3----|
A-7-7-7--2-2-2-3----|
E-5-5-5--0-0-0-1-1*-|

2nd time

e-------------|
B-------------|
G-------------|
D-7-7-7--5-5--|
A-7-7-7--5-5--|
E-5-5-5--3-3--|

Pre-Chorus
"UP and down the halls..."
e----------------|
B----------------|
G----------------|
D-3-3-3-3-3-3-5--|
A-3-3-3-3-3-3-5--|
E-1-1-1-1-1-1-3--|

e------------------|
B------------------|
G------------------|
D-7-7-7-7-7-7-5-5--|
A-7-7-7-7-7-7-5-5--|
E-5-5-5-5-5-5-3-3--|

e------------|
B------------|
G------------|
D-3-3-3-3-2~-|
A-3-3-3-3-2~-|
E-1-1-1-1-0~-|

Chorus
e------------------------|
B------------------------|
G-12/14-14--9-9-9/10-10--|
D-12/14-14--9-9-9/10-10--|X4
A-10/12-12--7-7-7/-8--8--|
E------------------------|

"G-I-R-L T-A-L-K - girls talk"
e------------------|
B------------------|
G------------------|
D-7-7-7-7-7-7-10-5-|X4
A-7-7-7-7-7-7-10-5-|
E-5-5-5-5-5-5--8-3-|

Pre-solo
"Think you're jealous much..."
e-------------------------|
B-------------------------|
G-----5-5-----------------|
D-3-3-5-5-7--7-7-5-7-7-5--|
A-3-3-3-3-7--7-7-5-7-7-5--|
E-1-1-----5--5-5-3-5-5-3--|X3

e----------------|
B----------------|
G----------------|
D-3-3-3-3-3-3-2--|
A-3-3-3-3-3-3-2--|
E-1-1-1-1-1-1-0--|
  -----------

Solo
e-------------------------|
B-------------------------|
G---------------------5---|
D-----------------5-----7-|
A-----3-----3-5-7---7-----|
E-3h5---5-----------------|

e------------------------------------|
B-5----------------------------------|
G-7^(9)-7^(9)v(7)p5h7p5-7^(9)7p5-7-5-|
D------------------------------------|
A------------------------------------|
E------------------------------------|

e---------------------------------------------|
B---------------------------------------------|
G-5-9*^(10)9p7h9p7-5-5-9*^(10)9p7h9p7-7^(8-9)-|
D---------------------------------------------|
A---------------------------------------------|
E---------------------------------------------|

e--------5-----8-7-5-10-8-7-12-10-8-12/20-0~~-|
B-8--6-5---8-6--------------------------------|
G---------------------------------------------|
D---------------------------------------------|
A---------------------------------------------|
E---------------------------------------------|

e------------------|
B------------------|
G------------------|
D-7-7-7-7-7-7-10-5-|1,2rest, 3
A-7-7-7-7-7-7-10-5-|
E-5-5-5-5-5-5--8-3-|
    ---   ---

Pre-Chorus
"UP and down the halls..."
e----------------|
B----------------|
G----------------|
D-3-3-3-3-3-3-5--|
A-3-3-3-3-3-3-5--|
E-1-1-1-1-1-1-3--|

e------------------|
B------------------|
G------------------|
D-7-7-7-7-7-7-5-5--|
A-7-7-7-7-7-7-5-5--|
E-5-5-5-5-5-5-3-3--|

e------------|
B------------|
G------------|
D-3-3-3-3-2~-|
A-3-3-3-3-2~-|
E-1-1-1-1-0~-|

another chorus

and then 

"stop talking about me"
e------------------------|
B------------------------|
G-12/14-14--9-9-9/10-10--|
D-12/14-14--9-9-9/10-10--|
A-10/12-12--7-7-7/-8--8--|
E------------------------|

2nd guitar
e-5-------5-------5-------5--------|
B---8^(10)--8^(10)--8^(10)--8^(10)-|
G----------------------------------|
D----------------------------------|
A----------------------------------|
E----------------------------------|

"G-I-R-L T-A-L-K girl talk"
e------------------|
B------------------|
G------------------|X4
D-7-7-7-7-7-7-10-5-|
A-7-7-7-7-7-7-10-5-|
E-5-5-5-5-5-5--8-3-|
    ---   ---

it ends on that last G chord. have fun
Tap to rate this tab
# A B C D E F G H I J K L M N O P Q R S T U V W X Y Z