Song name
# A B C D E F G H I J K L M N O P Q R S T U V W X Y Z

Donnas - Get Rid Of That Girl tab

This is my version for this song. I use two guitars.
I hope you enjoy!

Tatiana Müller
---------------------------------------------------

THE DONNAS - GET RID OF THAT GIRL
           VERSION 2


GUITAR 1
e ----------------|
B ----------------|
G -------77-99----|
D -7--77-77-99----|
A -7--77-55-77----|
E -5--55----------|

GUITAR 2
e ----------------|
B -------33-55----|
G -2--22-22-44-2--|
D -2--22-00-22-2--|
A -0--00-------0--|
E ----------------|

SECOND PART
e ------------------------------|
B ------------------------------|
G -----999----------------------|
D -777-999-7779991212127--------|
A -777-777-7779991212127--------|
E -555-----5557771010105--------|

RIFF
e ------------------|
B ------------------|
G ------------------|
D ------5-----------|
A --457--5----------|
E -5------5---------|
Tap to rate this tab
 
# A B C D E F G H I J K L M N O P Q R S T U V W X Y Z