Song name
# A B C D E F G H I J K L M N O P Q R S T U V W X Y Z

Donnas - Smoke You Out tab

Song: Smoke You Out
Artist: The Donnas	
Album: Bitchin'
Tabbed By: Iggy (Reptiliahasnoend@yahoo.com)

Intro

guitar 1
e-------------------------------|
B------------------------8-8-7--|
G-------------------x-x--7-7-7--|
D-7--5-7-9--7-9-10--x-x--7-7-7--|
A-5--5-5-5--5-5--5--x-x---------|
E-------------------------------|
|
|
guitar 2
e-------------------------------|
B------------10-----------------|
G------------12^(14)------------|
D-------------------------------|
A-------------------------------|
E-------------------------------|

guitar 1
e-------------------------------------------|
B-------------------------------------8-8-7-|
G-2-2-2-2-2-0-2-4--4-4-4-4-2-4-5--x-x-7-7-7-|
D-0-0-0-0-0-0-0-0--0-0-0-0-0-0-0--x-x-7-7-7-|
A---------------------------------x-x-------|
E-------------------------------------------|
|
|
guitar 2
e------------------------------------------
B------------------------------------------
G---12^(14)-12-10----10--------------10----
D-----------------12----12-10-12--12----12-
A------------------------------------------
E------------------------------------------

----------------------------10------------|
-------------------------10----10-13^(15)-|
-12^(14)-12h10----12-11-------------------|
---------------12-------------------------|
------------------------------------------|
------------------------------------------|

Verse
guitar 1
"Back yard roof top..."
e---------------|
B---------------|
G-7-----5-------|
D-7-----5---5---|
A-5-----3---5---|X2
E-----------3---|

"woah-uh-oh..."
e-----------------------------|
B-7-7-7-7-7-7-7-8-8-8-8-8-8-8-|
G-7-7-7-7-7-7-7-7-7-7-7-7-7-7-|
D-----------------------------|
A-----------------------------|
E-----------------------------|

e----------------------|
B-5-5-5-5-5-5-5-8--8-7-|
G-5-5-5-5-5-5-5-7--7-7-|
D----------------------|
A----------------------|
E----------------------|

Verse
guitar 1
"Midnight play..."
e---------------|
B---------------|
G-7-----5-------|
D-7-----5---5---|
A-5-----3---5---|X2
E-----------3---|

Pre-chorus
"Woah-oh-oh-oh, i've got..."
e-----------|
B-----------|
G-5--5-5----|
D-5--5-5-5--|
A-3--3-2-5--|
E--------3--|

"Somethin' bad for ya..."
e-----------------|
B-----------------|
G-7-7-7-7-7-7-7-7-|
D-7-7-7-7-7-7-7-7-|
A-5-5-5-5-5-5-5-5-|
E-----------------|

"Woah-oh-oh-oh..."
e-----------|
B-----------|
G-5--5-5----|
D-5--5-5-5--|
A-3--3-2-5--|
E--------3--|

Chorus
"You can't stop it..."
e--------------------------------|
B--------------------------------|
G-2-2-2-2-2-0-2-4--4-4-4-4-2-4-5-|
D-0-0-0-0-0-0-0-0--0-0-0-0-0-0-0-|
A--------------------------------|
E--------------------------------|_______
                                         \
"I'm gonna smoke you out..."              \
e------------|                             X2
B------------|                            /
G------5-----|___________________________/
D-3--3-5--5--|
A-3--3-3--5--|
E-1--1----3--|

This part
Guitar 1
e-------------------------------|
B-----------------5-7-10-10-10--|
G-7-7-9-9-x-x-x-x-5-7-10-10-10--|
D-5-5-5-5-x-x-x-x-3-5--8--8--8--|
A-------------------------------|
E-------------------------------|
|
|
Guitar 2
e--------------------------------------------|
B--------------------------------------------|
G----------------------10-12^(14)p10---10----|
D----------------10-12--------------12----12-|
A--------------------------------------------|
E--------------------------------------------|

Verse
guitar 1
"Shotgun rhinestrone..."
e---------------|
B---------------|
G-7-----5-------|
D-7-----5---5---|
A-5-----3---5---|X2
E-----------3---|

Pre-chorus
"Woah-oh-oh-oh, i've got..."
e-----------|
B-----------|
G-5--5-5----|
D-5--5-5-5--|
A-3--3-2-5--|
E--------3--|

"Somethin' bad for ya..."
e-----------------|
B-----------------|
G-7-7-7-7-7-7-7-7-|
D-7-7-7-7-7-7-7-7-|
A-5-5-5-5-5-5-5-5-|
E-----------------|

"Woah-oh-oh-oh..."
e-----------|
B-----------|
G-5--5-5----|
D-5--5-5-5--|
A-3--3-2-5--|
E--------3--|

Chorus
"You can't stop it..."
e--------------------------------|
B--------------------------------|
G-2-2-2-2-2-0-2-4--4-4-4-4-2-4-5-|
D-0-0-0-0-0-0-0-0--0-0-0-0-0-0-0-|
A--------------------------------|
E--------------------------------|_______
                                         \
"I'm gonna smoke you out..."              \
e------------|                             X2
B------------|                            /
G------5-----|___________________________/
D-3--3-5--5--|
A-3--3-3--5--|
E-1--1----3--|

Bridge
This part is really indistinct to me
but live allison plays chords at this part
so here's what i think she plays. Play where she sings.
"Slide under the co-ver"
e----------------------|
B----------------------|
G----------------5---7-|
D-7--------------5---7-|
A-7--------------3---5-|
E-5--------------------|

"Crystal-coated ri-ide."
e----------------------|
B----------------------|
G----------------------|
D-3-------------7--5---|
A-3-------------7--5---|
E-1-------------5--3---|

"Totempole trapeze lo-ver."
e-------------------------|
B-------------------------|
G-------------------5---7-|
D-7-----------------5---7-|
A-7-----------------3---5-|
E-5-----------------------|

"...easy and you could be mine."
guitar 1
e-----------------------------|
B-----------------------------|
G-----------------------------|
D----7--7--7--7--3--3--3--3---|
A----7--7--7--7--3--3--3--3---|
E----5--5--5--5--1--1--1--1---|
|
|
guitar 2
e-----------------------------|
B-----------------------------|
G-----------------------------|
D-----------------------17h19-|
A-----------------------------|
E-----------------------------|

Solo
guitar 2
e-------------------------------------------------|
B-------------------------------------------------|
G-17h19p17----17h19p17----17h19p17----17h19p17----|
D----------19----------19----------19----------19-|
A-------------------------------------------------|
E-------------------------------------------------|

e-------------------------------------------------|
B-------------------------------------------------|
G-17h19p17----17h19p17-----17-19------------------|
D----------19----------19------------------17h19--|
A-------------------------------------------------|
E-------------------------------------------------|

e-------------------------------------------------|
B-------------------------------------------------|
G-17h19p17----17h19p17----17h19p17----17h19p17----|
D----------19----------19----------19----------19-|
A-------------------------------------------------|
E-------------------------------------------------|

e----------------------20------20------20------20--|
B-------20-19---20-20^(22)-20^(22)-20^(22)-20^(22)-|
G-17-----------------------------------------------|
D----19--------------------------------------------|
A--------------------------------------------------|
E--------------------------------------------------|

e--------20------20------20------20------|
B-20-20^(22)-20^(22)-20^(22)-20^(22)-----|
G------------------------------------19--|
D----------------------------------------|
A----------------------------------------|
E----------------------------------------|

e-------------------------------|
B-20-19-18----------------------|
G----------19-18-17-------------|
D-------------------19-18-17-15-|
A-------------------------------|
E-------------------------------|

e-------------------------|
B-------------20-19---22/-|
G-------17----------------|
D-17h19----19-------------|
A-------------------------|
E-------------------------|

Pre-chorus
"Woah-oh-oh-oh, i've got..."
e-----------|
B-----------|
G-5--5-5----|
D-5--5-5-5--|
A-3--3-2-5--|
E--------3--|

"Somethin' bad for ya..."
e-----------------|
B-----------------|
G-7-7-7-7-7-7-7-7-|
D-7-7-7-7-7-7-7-7-|
A-5-5-5-5-5-5-5-5-|
E-----------------|

"Woah-oh-oh-oh..."
e-----------|
B-----------|
G-5--5-5----|
D-5--5-5-5--|
A-3--3-2-5--|
E--------3--|

Chorus
"You can't stop it..."
Guitar 2
e-----------------------------|
B-7-7-7-7-7-7-7-8-8-8-8-8-8-8-|
G-7-7-7-7-7-7-7-7-7-7-7-7-7-7-|
D-----------------------------|
A-----------------------------|
E-----------------------------|

e----------------------|
B-5-5-5-5-5-5-5-8--8-7-|
G-5-5-5-5-5-5-5-7--7-7-|X2
D----------------------|
A----------------------|
E----------------------|
|
|
Guitar 1 (comes in the 2nd time)
e--------------------------------|
B--------------------------------|
G-2-2-2-2-2-0-2-4--4-4-4-4-2-4-5-|
D-0-0-0-0-0-0-0-0--0-0-0-0-0-0-0-|
A--------------------------------|
E--------------------------------|

Chorus
"You can't stop it..."
e--------------------------------|
B--------------------------------|
G-2-2-2-2-2-0-2-4--4-4-4-4-2-4-5-|
D-0-0-0-0-0-0-0-0--0-0-0-0-0-0-0-|
A--------------------------------|
E--------------------------------|_______
                                         \
"I'm gonna smoke you out..."              \
e------------|                             X2
B------------|                            /
G------5-----|___________________________/
D-3--3-5--5--|
A-3--3-3--5--|
E-1--1----3--|

Ending
Guitar 1
e-------------------------------|
B-----------------5-7-10-10-10--|
G-7-7-9-9-x-x-x-x-5-7-10-10-10--|
D-5-5-5-5-x-x-x-x-3-5--8--8--8--|
A-------------------------------|
E-------------------------------|

e------|
B------|
G-7----|
D-7----|
A-5----|
E------|

that's it. i think it's pretty simple. like usual
comments or complaints to reptiliahasnoend@yahoo.com
Tap to rate this tab
# A B C D E F G H I J K L M N O P Q R S T U V W X Y Z