Guitaretab - guitar tabs
Song name
# A B C D E F G H I J K L M N O P Q R S T U V W X Y Z

Donnas - We Own The Night tab

Band : The Donnas
Song : We own the night(UK Bonus)
Album : Bitchiní
Tuning : Standard
Tabbed by : Anelore

Thatís my first tab, but I think itís rather right.
Enjoy !

Intro
e-----------------------------|
B-----------------------------|
G-----------------------------|
D-----7---5-7~----7---5-7-----|
A-0-0---0-----0-0---0-----8~--|
E-----------------------------|

e-----------------------------|
B-----------------------------|
G-------------------------5~--|
D-----7---5-7~----7---5-7-----|
A-0-0---0-----0-0---0---------|
E-----------------------------|

e------------------------------------------------------|
B------------------------------------------------------|
G------------------------------------------------------|
D-----7---5-7~----7---5-7------------------------------|
A-0-0---0-----0-0---0-----8-8-7~-7-7-5-7-3------3------|
E------------------------------------------5~-5---5-3--|

Verse: They can see us....
e-------------------------|
B-------------------------|
G-----------2-------------|
D-7---------2--7----------|
A-7-5h7-5-3-0--7----------|
E-5------------5-5-8-5-3--| x2

Run and hide...
e-------------------------|
B-------------------------|
G-------------------------|
D-7----10---12----3----5--|
A-7----10---12----3----5--|
E-5----8----10----1----3--|

Chorus: Sun goes down... (same as Intro)
e-----------------------------|
B-----------------------------|
G-----------------------------|
D-----7---5-7~----7---5-7-----|
A-0-0---0-----0-0---0-----8~--|
E-----------------------------|

e-----------------------------|
B-----------------------------|
G-------------------------5~--|
D-----7---5-7~----7---5-7-----|
A-0-0---0-----0-0---0---------|
E-----------------------------|





e----------------------------------------------------------|
B----------------------------------------------------------|
G----------------------------------------------------------|
D-----7---5-7~----7---5-7----------------------------------|
A-0-0---0-----0-0---0-----8-8-7~-7-7-5-7-3------3----------|
E------------------------------------------5~-5---5-3~/5~--|

Verse: They donít listen...
e------------------------|
B------------------------|
G-----------2------------|
D-7---------2-7----------|
A-7-5h7-5-3-0-7----------|
E-5-----------5-5-8-5-3--| x2


Run and hide...

Chorus: Sun goes down...

Solo
e--------------------------------------------------|
B----------15-17-15----15--------------------------|
G-14-14h17----------17----17-14----14--------------|
D-------------------------------17----17-14--------|
A-------------------------------------------15-17--|
E--------------------------------------------------|
[ Tab from: http://www.guitaretab.com/d/donnas/115455.html ]
e--------------------------------------------------|
B----------15-17-15----15--------------------------|
G-14-14h17----------17----17-14--------------------|
D-------------------------------17-15b18rb15-------|
A--------------------------------------------------|
E--------------------------------------------------|

e--------------------------------------------------|
B----------15-17-15----15--------------------------|
G-14-14h17----------17----17-14----14--------------|
D-------------------------------17----17-14--------|
A-------------------------------------------15-17--|
E--------------------------------------------------|


e----------------------------------15----------------|
B----------15-17-15----15-------------15b17rb15-15~--|
G-14-14h17----------17----17-14----------------------|
D-------------------------------17-------------------|
A----------------------------------------------------|
E----------------------------------------------------|

e-----------5---5-3-0---5-5-3-0-3-0-3-0-3-5~---------|
B-7-5-3-5-3---3--------3-----------------------------|
G----------------------------------------------------|
D----------------------------------------------------|
A----------------------------------------------------|
E----------------------------------------------------|


e-----------5---5-3-0----5-5-3-0-3-0----0---1~-------|
B-7-5-3-5-3---3--------3-------------5----5----------|
G----------------------------------------------------|
D----------------------------------------------------|
A----------------------------------------------------|
E----------------------------------------------------|

You donít want us to stay...

e--------------------------------------------------|
B---------------7----------------------------------|
G---------------7h9-7------------------------------|
D-7-7-7-7-7-7-5-------10~-7-7-7-7-7-7-3-3-3-3-3-3--|
A-7-7-7-7-7-7-5-----------7-7-7-7-7-7-3-3-3-3-3-3--|
E-5-5-5-5-5-5-3-----------5-5-5-5-5-5-1-1-1-1-1-1--|
    . . . . .               . . . . .   . . . . .
       PM                      PM           PM

You might control the day...
e-------------------------------------|
B-------------------------------------|
G-------------------------------------|
D-7-7-7-7-7-7-10-10-10-10-10-10-12-3--|
A-7-7-7-7-7-7-10-10-10-10-10-10-12-3--|
E-5-5-5-5-5-5-8--8--8--8--8--8--10-1--|
    . . . . .    .  .  .  .  . 
        PM            PM          

Chorus x1

e-----------------------------|
B-----------------------------|
G-------------------------5~--|
D-----7---5-7~----7---5-7-----|
A-0-0---0-----0-0---0---------|
E-----------------------------|x3


e----------------------------------|
B----------------------------------|
G----------------------------------|
D----------------------------------|
A-8-8-7~-7-7-5-7-3------3----------|
E------------------5~-5---5-3~/5~--|
Related for We Own The Night tab