Song name
# A B C D E F G H I J K L M N O P Q R S T U V W X Y Z

Donnas - What Do I Have To Do tab

Song: What Do I Have To Do
Band: The Donnas
Album: Bitchin'
Tuning: Standard
Credit to: Iggy

Key
/=slide
^=bend
t=taps
p=pull off
h=hammer on
*=Palm mute
v=vibrato

Intro:

e-----------------------------|
B-----------------------------|
G--------2----4--2-4-7--6-7-6-|
D-4--2-4-2--2-4--2-4-7--6-7-6-|
A-4--2-4-0--2-2--0-2-5--4-5-4-|
E-2--0-2----0-----------------|X2


Verse:

e---------------------------------|
B---------------------------------|
G-----------------7-7-7-7-7-7-7-7-|
D-4-4-4-4-4-4-4-4-7-7-7-7-7-7-7-7-|
A-4-4-4-4-4-4-4-4-5-5-5-5-5-5-5-5-|
E-2-2-2-2-2-2-2-2-----------------|
  ********************************

e---------------------------------|
B---------------------------------|
G-4-4-4-4-4-4-4-4-4-4-4-4-4-4-4-4-|
D-4-4-4-4-4-4-4-4-4-4-4-4-4-4-4-4-|
A-2-2-2-2-2-2-2-2-2-2-2-2-2-2-2-2-|
E---------------------------------|
  ********************************


e---------------------------------|
B---------------------------------|
G-----------------7-7-7-7-7-7-7-7-|
D-4-4-4-4-4-4-4-4-7-7-7-7-7-7-7-7-|
A-4-4-4-4-4-4-4-4-5-5-5-5-5-5-5-5-|
E-2-2-2-2-2-2-2-2-----------------|
  ********************************

e-------------------------|
B-------------------------|
G-------------------------|
D-------------------------|
A-7-----7--------7-----7--|
E----7-----7--5-----4-----|

e---------------------------------|
B---------------------------------|
G-----------------7-7-7-7-7-7-7-7-|
D-4-4-4-4-4-4-4-4-7-7-7-7-7-7-7-7-|
A-4-4-4-4-4-4-4-4-5-5-5-5-5-5-5-5-|
E-2-2-2-2-2-2-2-2-----------------|
  ********************************

e---------------------------------|
B---------------------------------|
G-4-4-4-4-4-4-4-4-4-4-4-4-4-4-4-4-|
D-4-4-4-4-4-4-4-4-4-4-4-4-4-4-4-4-|
A-2-2-2-2-2-2-2-2-2-2-2-2-2-2-2-2-|
E---------------------------------|
  ********************************

Pre-Chorus

e------------------------------|
B------------------------------|
G-7-7-7-7-7-7-7-9--9-9-9-9-9-9-|
D-7-7-7-7-7-7-7-9--9-9-9-9-9-9-|
A-5-5-5-5-5-5-5-7--7-7-7-7-7-7-|
E------------------------------|

e--------------------------------|
B--------------------------------|
G-6--6-6-6-6-6-6-9-9-9-9-9-9-9-9-|
D-6--6-6-6-6-6-6-9-9-9-9-9-9-9-9-|
A-4--4-4-4-4-4-4-7-7-7-7-7-7-7-7-|
E--------------------------------|

Chorus


e-----------------------------|
B-----------------------------|
G--------2----4--2-4-7--6-7-6-|
D-4--2-4-2--2-4--2-4-7--6-7-6-|
A-4--2-4-0--2-2--0-2-5--4-5-4-|
E-2--0-2----0-----------------|X2

Bridge Section to Verse

e-------------------|
B-------------------|
G-----------9/11-11-|
D-4--7--9---9/11-11-|
A-4--7--9---7/-9--9-|
E-2--5--7-----------|

Verse:

e---------------------------------|
B---------------------------------|
G-----------------7-7-7-7-7-7-7-7-|
D-4-4-4-4-4-4-4-4-7-7-7-7-7-7-7-7-|
A-4-4-4-4-4-4-4-4-5-5-5-5-5-5-5-5-|
E-2-2-2-2-2-2-2-2-----------------|
  ********************************

e---------------------------------|
B---------------------------------|
G-4-4-4-4-4-4-4-4-4-4-4-4-4-4-4-4-|
D-4-4-4-4-4-4-4-4-4-4-4-4-4-4-4-4-|
A-2-2-2-2-2-2-2-2-2-2-2-2-2-2-2-2-|
E---------------------------------|
  ********************************


e---------------------------------|
B---------------------------------|
G-----------------7-7-7-7-7-7-7-7-|
D-4-4-4-4-4-4-4-4-7-7-7-7-7-7-7-7-|
A-4-4-4-4-4-4-4-4-5-5-5-5-5-5-5-5-|
E-2-2-2-2-2-2-2-2-----------------|
  ********************************

e-------------------------|
B-------------------------|
G-------------------------|
D-------------------------|
A-7-----7--------7-----7--|
E----7-----7--5-----4-----|

e---------------------------------|
B---------------------------------|
G-----------------7-7-7-7-7-7-7-7-|
D-4-4-4-4-4-4-4-4-7-7-7-7-7-7-7-7-|
A-4-4-4-4-4-4-4-4-5-5-5-5-5-5-5-5-|
E-2-2-2-2-2-2-2-2-----------------|
  ********************************

e---------------------------------|
B---------------------------------|
G-4-4-4-4-4-4-4-4-4-4-4-4-4-4-4-4-|
D-4-4-4-4-4-4-4-4-4-4-4-4-4-4-4-4-|
A-2-2-2-2-2-2-2-2-2-2-2-2-2-2-2-2-|
E---------------------------------|
  ********************************

Pre-Chorus

e------------------------------|
B------------------------------|
G-7-7-7-7-7-7-7-9--9-9-9-9-9-9-|
D-7-7-7-7-7-7-7-9--9-9-9-9-9-9-|
A-5-5-5-5-5-5-5-7--7-7-7-7-7-7-|
E------------------------------|

e--------------------------------|
B--------------------------------|
G-6--6-6-6-6-6-6-9-9-9-9-9-9-9-9-|
D-6--6-6-6-6-6-6-9-9-9-9-9-9-9-9-|
A-4--4-4-4-4-4-4-7-7-7-7-7-7-7-7-|
E--------------------------------|

Chorus


e-----------------------------|
B-----------------------------|
G--------2----4--2-4-7--6-7-6-|
D-4--2-4-2--2-4--2-4-7--6-7-6-|
A-4--2-4-0--2-2--0-2-5--4-5-4-|
E-2--0-2----0-----------------|X2

Bridge Section to Verse

e-------------------|
B-------------------|
G-----------9/11-11-|
D-4--7--9---9/11-11-|
A-4--7--9---7/-9--9-|
E-2--5--7-----------|

Solo:

e-----------------------------------------|
B-----------------------------------------|
G-----------------------------------------|
D------------------------------------2----|
A--------0-----0----0h2--0-----2-4-2----4-|
E-2--0-2---0-2---2---------2v-------------|

e-------------------------------------------------|
B-------------------------------------------------|
G-(t14)9-11p9-(t14)9-11p9-(t14)9-11p9-(t14)9-11p9-|
D-------------------------------------------------|
A-------------------------------------------------|
E-------------------------------------------------|

e-------------------------------------------------|
B-------------------------------------------------|
G-h9p6-(t11)6-h9p6-(t11)6-h9p6-(t11)6-h9p6-(t11)6-|
D-------------------------------------------------|
A-------------------------------------------------|
E-------------------------------------------------|

e----------|
B-10^(12)--|
G----------|
D----------|
A----------|
E----------|

e-----------------------------------------------------------------|
B-(t14)10-(t17)10-(t14)10-(t17)10-(t22)10-(t19)10-(t22)10-(t19)10-|
G-----------------------------------------------------------------|
D-----------------------------------------------------------------|
A-----------------------------------------------------------------|
E-----------------------------------------------------------------|

New SEction

Guitar 1
e----------------------------------------|
B----------------------------------------|
G-9-9--9-9-9-9-9-9-7--7-7-7-7--7-7-7--7--|
D-9-9--9-9-9-9-9-9-7--7-7-7-7--7-7-7--7--|
A-7-7--7-7-6-6-6-6-5--5-5-5-4--4-4-4--5--|
E----------------------------------------|

Guitar 2
e-17^(19)---------17--------14-----------|
B----------------------------------------|
G----------------------------------------|
D----------------------------------------|
A----------------------------------------|
E----------------------------------------|

Guitar 1
e----------------------------------------|
B----------------------------------------|
G-9-9--9-9-9-9-9-9-7--7-7-7-7--7-7-7--7--|
D-9-9--9-9-9-9-9-9-7--7-7-7-7--7-7-7--7--|
A-7-7--7-7-6-6-6-6-5--5-5-5-4--4-4-4--5--|
E----------------------------------------|

Guitar 2
e-17^(19)---------17--------14-----------|
B----------------------------------------|
G----------------------------------------|
D----------------------------------------|
A----------------------------------------|
E----------------------------------------|

Bass fill
G------------------------|
D------------------------|
A--------0------------5--|
E-2--0-2----0--2--0-2----|

New Verse

e---------------------------------|
B---------------------------------|
G-----------------2-2-2-2-2-2-2-2-|
D-4-4-4-4-4-4-4-4-2-2-2-2-2-2-2-2-|
A-4-4-4-4-4-4-4-4-0-0-0-0-0-0-0-0-|
E-2-2-2-2-2-2-2-2-----------------|
  *******************************

e---------------------------------|
B---------------------------------|
G-4-4-4-4-4-4-4-4-7-7-7-7-7-7-7-7-|
D-4-4-4-4-4-4-4-4-7-7-7-7-7-7-7-7-|
A-2-2-2-2-2-2-2-2-5-5-5-5-5-5-5-5-|
E---------------------------------|
  *******************************

e---------------------------------|
B---------------------------------|
G-----------------2-2-2-2-2-2-2-2-|
D-4-4-4-4-4-4-4-4-2-2-2-2-2-2-2-2-|
A-4-4-4-4-4-4-4-4-0-0-0-0-0-0-0-0-|
E-2-2-2-2-2-2-2-2-----------------|
  *******************************

e---------------------------------|
B---------------------------------|
G-9-9-9-9-9-9-9-9-6-6-6-6-6-6-6-6-|
D-9-9-9-9-9-9-9-9-6-6-6-6-6-6-6-6-|
A-7-7-7-7-7-7-7-7-4-4-4-4-4-4-4-4-|
E---------------------------------|

Chorus
e-----------------------------|
B-----------------------------|
G--------2----4--2-4-7--6-7-6-|
D-4--2-4-2--2-4--2-4-7--6-7-6-|
A-4--2-4-0--2-2--0-2-5--4-5-4-|
E-2--0-2----0-----------------|X4

Ending Chord
e---|
B---|
G---|
D-4-|
A-4-|
E-2-|
Tap to rate this tab
 
# A B C D E F G H I J K L M N O P Q R S T U V W X Y Z