Song name
# A B C D E F G H I J K L M N O P Q R S T U V W X Y Z

Donnas - Speed Demon tab

Band: The Donnas
Song: Speed demon
Album : American rock'n'roll machine
Tuning : Standard
Tabbed by : Anelore

Intro:

e-----------------------------------|
B-----------------------------------|
G-----------------------------------|           
D-----------------------------------|        X3
A-9-9-11-9-9-9-11-9-9-11-9-9-9-11-9-|
E-7-7--7-7-7-7--7-7-7--7-7-7-7--7-7-|

e------------------------------|
B------------------------------|
G--------------------------9-7-|           
D--------------------------9-7-|        
A-9-9-11-9-9-9-11-9-9-11-9-7-5-|
E-7-7--77-7-7--7-7-7--7-7-----|

Out to kill, baby, I'm ready to go...
e------------------------------|
B------------------------------|
G--------------------------9-7-|           
D--------------------------9-7-|     x3   
A-9-9-11-9-9-9-11-9-9-11-9-7-5-|
E-7-7--77-7-7--7-7-7--7-7-----|

Get out of my way 'cause I'll rip you apart...
e------|
B------|
G------|
D-9--7-|
A-9--7-|
E-7--5-|

Chorus:

'Cause I'm a speed demon baby...
e------------------------------------------------|
B------------------------------------------------|
G------------------------------------------------|
D-9-9-11-9-9-9-11-9-9-11-9-9-9-11-9--------------|
A-7-7--7-7-7-7--7-7-7--7-7-7-7--7-7--------------|
E------------------------------------------------|

Speed demon baby, just gotta rock n roll
e-----------------------------------|
B-----------------------------------|
G-----------------------------------|           
D-----------------------------------|        
A-9-9-11-9-9-9-11-9-9-11-9-9-9-11-9-|
E-7-7--7-7-7-7--7-7-7--7-7-7-7--7-7-|

Speed demon baby, just wanna get it tonight
e-----------------------|  |--------------------------------------|
B-----------------------|  |--------------------------------------|
G-------------9-9-9-9-9-|  |----------------------------------9-7-|
D-------------9-9-9-9-9-|  |----------12~---------------------9-7-|  x2
A-7-9-7-7-9-7-7-7-7-7-7-|  |/12-14-12-----14-12-14~-12-14-12~-7-5-|
E-5-5-5-5-5-5-----------|  |--------------------------------------|

e-----------------------------------|
B-----------------------------------|
G-----------------------------------|           
D-----------------------------------|        X3
A-9-9-11-9-9-9-11-9-9-11-9-9-9-11-9-|
E-7-7-7-7-7-7-7-7-7--7-7-7-7--7-7-|

e------------------------------|
B------------------------------|
G--------------------------9-7-|           
D--------------------------9-7-|        
A-9-9-11-9-9-9-11-9-9-11-9-7-5-|
E-7-7--77-7-7--7-7-7--7-7-----|

Come over here, you wanna be my ride...
e------------------------------|
B------------------------------|
G--------------------------9-7-|           
D--------------------------9-7-|     x3   
A-9-9-11-9-9-9-11-9-9-11-9-7-5-|
E-7-7--77-7-7--7-7-7--7-7-----|

Step aside boy, I'll show you how it's done...
e------|
B------|
G------|
D-9--7-|
A-9--7-|
E-7--5-|

Chorus:

'Cause I'm a speed demon baby...
e------------------------------------------------|
B------------------------------------------------|
G------------------------------------------------|
D-9-9-11-9-9-9-11-9-9-11-9-9-9-11-9--------------|
A-7-7--7-7-7-7--7-7-7--7-7-7-7--7-7--------------|
E------------------------------------------------|

Speed demon baby, just gotta rock n roll
e-----------------------------------|
B-----------------------------------|
G-----------------------------------|           
D-----------------------------------|        
A-9-9-11-9-9-9-11-9-9-11-9-9-9-11-9-|
E-7-7--7-7-7-7--7-7-7--7-7-7-7--7-7-|

Speed demon baby, just wanna get it tonight
e-----------------------|  |--------------------------------------|
B-----------------------|  |--------------------------------------|
G-------------9-9-9-9-9-|  |----------------------------------9-7-|
D-------------9-9-9-9-9-|  |----------12~---------------------9-7-|  x2
A-7-9-7-7-9-7-7-7-7-7-7-|  |/12-14-12-----14-12-14~-12-14-12~-7-5-|
E-5-5-5-5-5-5-----------|  |--------------------------------------|

e------------------| 
B------------------|
G------------------| 
D-9-10-11-10-11-13-| 
A-9-10-11-10-11-13-|   
E-7--8-9--8--9-11-| 

Don't have to give it up...
e-------------------------------------------------------|
B-------------------------------------------------------|
G-9-11-9-9-11-9-----------------------------------------|
A-7-7--7-7--7-7-9-11-9-9-11-9-7-9-7-7-9-7-9-11-9-9-11-9-| 
E---------------7--7-7-7--7-7-5-5-5-5-5-5-7--7-7-7--7-7-|

Speed demon baby...
e----------------------------------------------------------------|
B----------------------------------------------------------------|
G----------------------------------------------------------------|
D-9-9-11-9-9-9-11-9----------------------------------------------|
A-7-7--7-7-7-7--7-7-9-9-11-9-9-9-11-9--7-7-9-7-7-7-9-7-7-9-7-7-7-|
E-------------------7-7--7-7-7-7--7-7--5-5-5-5-5-5-5-5-5-5-5-5-5-|

e-----------------------------------|
B-----------------------------------|
G-----------------------------------|           
D-----------------------------------|        X3
A-9-9-11-9-9-9-11-9-9-11-9-9-9-11-9-|
E-7-7--7-7-7-7--7-7-7--7-7-7-7--7-7-|

e------------------------------|
B------------------------------|
G--------------------------9-7-|    x4       
D--------------------------9-7-|        
A-9-9-11-9-9-9-11-9-9-11-9-7-5-|
E-7-7--77-7-7--7-7-7--7-7-----|
Tap to rate this tab
# A B C D E F G H I J K L M N O P Q R S T U V W X Y Z