Song name
# A B C D E F G H I J K L M N O P Q R S T U V W X Y Z

Donnas - Take It Off tab

-------------------------------------------------------------------------------
			  TAKE IT OFF (solo) - The Donnas
-------------------------------------------------------------------------------

Tabbed by: CrashAshes43
Email: xGib50nKing@yahoo.com

Tuning: Standard (EADGBe)

This is the FULL solo to Take It Off, i.e. including the background solos in the bridge.

e|---------------------------------------------|
B|---------------------------------------------|
G|---------------------------------------------|
D|-9b(11)---(11)---(11)br9-7---7---------------|
A|---------------------------9---9-7---7-----0-|
E|-----------------------------------9---9-7---|

e|--------------------------------------------------------|
B|------------------------7--------7----9b(10)--7---------|
G|------------------------7--------7----9b(10)--7---------|
D|-9~-9~-9-7-9~-9~-9~-9-7----9~-9~----9------------9-7-9~-|
A|--------------------------------------------------------|
E|--------------------------------------------------------|

e|---------------------------------------|
B|---------------------------------------|
G|-----------6---------------------------|
D|-----7---7-9b(11)---(11)---(11)br9-7---|
A|-7-9---9-----------------------------x-|
E|---------------------------------------|

e|-----------------------------------------------------|
B|-----------------------------------------------------|
G|-----------------------------------------------------|
D|-----------------------------------------------------|
A|-9p5h7p5h7p5h9p5h7p5h7p5h9p5h7p5h7p5h9p5h7p5h9p5h7p5-|
E|-----------------------------------------------------|

e|-------------7-7-7-6/7-7-7-6/7-7-7-6/7-7-7-----------------------------|
B|-------------7-7-7-6/7-7-7-6/7-7-7-6/7-7-7-7---------------------------|
G|-------------------------------------------9b(11)---9p7----------------|
D|-9---/(11)---------------------------------------------h9p7h9~--/(11)--|
A|-x-----x----------------------------------------------------------x----|
E|-7---/(9)-------------------------------------------------------/(9)---|

e|-----------------------------------------------|
B|-7-----9---7---7-------------------------------|
G|-7-----9---7---7-------------------------------|
D|-----9-------9-----7-7h9-9h7-7-----------------|
A|------------------------------h10-10~--/(12)---|
E|-----------------------------------------------|

e|-------------------------------------------------|
B|-------------------------------------------------|
G|-9-9-7-9---9-9-7-----9b(11)---7------------------|
D|-9-9-7-9---9-9-7---7--------------9-7-9---/(11)--|
A|--------------------------------------x-----x----|
E|--------------------------------------7---/(9)---|

I hope you found this to your liking. Be sure to rate and comment!

************************************

| /   slide up
| \   slide down
| h   hammer-on
| p   pull-off
| ~   vibrato
| +   harmonic
| x   Mute note
| b   Bend
| pb  Pre-bend
| br  Bend release
| pbr Pre-bend release
| brb Bend release bend

************************************
Tap to rate this tab
# A B C D E F G H I J K L M N O P Q R S T U V W X Y Z