Song name
# A B C D E F G H I J K L M N O P Q R S T U V W X Y Z

Donnas - Get Rid Of That Girl tab

Part 1:

|------------------------------|
|------------------------------|
|---77-99---------77-----------|
|7--77-99-77777---77-77-7777---|
|7--55-77-77777---55-77-7777---|
|5--------55555------55-5555---|

Part 2(Chorus):

|----------------|
|----------------|
|-------77--99---|
|-7777--77--99---| x5
|-7777--55--77---|
|-5555-----------|

Part 3:

|----------------|
|----------------|
|-77-99----------|
|-77-99--77777---|
|-55-77--77777---|
|--------55555---|

Part 1

Part 2(Chorus)x5

Part 4:

|----------------|
|----------------|
|----77----------|
|-77-77-7777777--|
|-77-55-7777777--|
|-55----5555555--|

Part 5:

|--------------------------------------|
|--------------------------------------|
|-7777------7777------7777-----------9~|
|-7777-7777-7777-7777-7777-7777-9999-9~|
|-5555-7777-5555-7777-5555-7777-9999-7~|
|------5555------5555------5555-7777---|

Part 6:

|-----------------|
|-----------------|
|-------667766----|
|---6699------996-|
|-77--------------|
|-----------------|

Part 2(Chorus) x2

Part 1

Part 2(Chorus) x5

Part 3

Part 2(Chorus) x3

End on:

|-----|
|-----|
|-----|
|--7~-|
|--7~-|
|--5~-|
Tap to rate this tab
# A B C D E F G H I J K L M N O P Q R S T U V W X Y Z