Song name
# A B C D E F G H I J K L M N O P Q R S T U V W X Y Z

Donnas - Teenage Runaway tab

Teenage Runaway - The Donnas - The Donnas (1997)

Intro/Chorus
e|--------------|--------|--------|---------|
b|--------------|--------|--------|---------|
g|--4-----9-----|-----9--|--------|--9--11--|
d|--4--4--9--4--|--9--9--|--8--9--|--9--11--|
a|--2--4--7--4--|--9--7--|--8--9--|--7---9--|
E|-----2-----2--|--7-----|--6--7--|---------|

Verse
e|------------|
b|------------|
g|-----9--11--|
d|--9--9--11--|
a|--9--7---9--|
E|--7---------|

Pre-Chorus/Outro
e|---------------|
b|---------------|
g|--------9--11--|
d|--9--7--9--11--|
a|--9--7--7---9--|
E|--7--5---------|
Tap to rate this tab
 
# A B C D E F G H I J K L M N O P Q R S T U V W X Y Z