Guitaretab - guitar tabs
Song name
# A B C D E F G H I J K L M N O P Q R S T U V W X Y Z

Donnas - You Make Me Hot tab

You Make Me Hot - The Donnas - American Teenage Rock N Roll Machine

Intro(w/pm)
e|-----|
b|-----|
g|-----|
d|--5--|
a|--5--|
E|--3--|

Verse(w/pm)
e|-----------------------------|
b|-----------------------------|
g|-----------5-----------------|
d|--5--------5--------5--------|
a|--5--------3--------5--------|
E|--3-----------------3--------|
 |                             |
e|-----------------------------|
b|-----------1--0--1-----------|
g|-----------------------------|
d|--2--0--2-----------2--0--2--|
a|-----------------------------|
E|-----------------------------|
[ Tab from: http://www.guitaretab.com/d/donnas/73330.html ]
Chorus
e|-----------------------|
b|-----------------------|
g|--7--5--7--5--7--5-----|
d|--7--5--7--5--7--5--5--|
a|--5--3--5--3--5--3--5--|
E|--------------------3--|

e|-------------------------------------------------------------------|
b|-------------------------------------------------------------------|
g|--0--2--0--3--0--4--0--5--6h7--6h7--0--2--3--0--4--0--5--6h7--6h7--|
d|-------------------------------------------------------------------|
a|-------------------------------------------------------------------|
E|-------------------------------------------------------------------|

Outro
e|-----|
b|-----|
g|-----|
d|--5--|
a|--5--|
E|--3--|
Related for You Make Me Hot tab
×
You Make Me Hot