Song name
# A B C D E F G H I J K L M N O P Q R S T U V W X Y Z

Donnas - Lana And Stevie tab

Lana & Stevie - The Donnas - The Donnas (1997)

Verse
e|-----------|
b|-----------|
g|--4--------|
d|--4--4--7--|
a|--2--4--7--|
E|-----2--5--|

Chorus
e|-----------|--------|
b|-----------|--------|
g|--7--9-----|--------|
d|--7--9--9--|--7--4--|
a|--5--7--9--|--7--4--|
E|--------7--|--5--2--|

e|-----------|
b|-----------|
g|--4--7--9--|
d|--4--7--9--|
a|--2--5--7--|
E|-----------|
Tap to rate this tab
 
# A B C D E F G H I J K L M N O P Q R S T U V W X Y Z