Guitaretab - guitar tabs
Song name
# A B C D E F G H I J K L M N O P Q R S T U V W X Y Z

Donnas - Im Gonna Make Him Mine Tonight tab

Iím Gonna Make Him Mine (Tonight) - The Donnas - The Donnas (1997)

Intro
e|---------------|
b|---------------|
g|-----9-----11--|
d|--9--9--9--11--|
a|--9--7--9---9--|
E|--7-----7------|

Verse
e|------------|
b|------------|
g|-----9--11--|
d|--9--9--11--|
a|--9--7---9--|
E|--7---------|
Pm  .
[ Tab from: http://www.guitaretab.com/d/donnas/73332.html ]
Pre-Chorus
e|---------|----------------------|
b|---------|----------------------|
g|--9--11--|--------9--11--9--11--|
d|--9--11--|--9--6--9--11--9--11--|
a|--7---9--|--9--6--7---9--7---9--|
E|---------|--7--4----------------|

Chorus
e|-----------------------------------|
b|-----------------------------------|
g|-----9--11--------9--11-----11-----|
d|--9--9--11--------9--11--9--11--9--|
a|--9--7---9--[x3]--7---9--9---9--9--|
E|--7----------------------7------7--|

e|---------------|
b|---------------|
g|--9-----11-----|
d|--9--9--11--9--|
a|--7--9---9--9--|
E|-----7------7--|

Outro
e|---------------|
b|---------------|
g|--------9--11--|
d|--9--6--9--11--|
a|--9--6--7---9--|
e|--7--4---------|
Related for Im Gonna Make Him Mine Tonight tab