Song name
# A B C D E F G H I J K L M N O P Q R S T U V W X Y Z

Donnas - Everybodys Smoking Cheeba tab

Everybody’s Smoking Cheeba - The Donnas - The Donnas (1997)

Intro
e|--------------|
b|--------------|
g|--------------|
d|--8--5--8--5--|
a|--8--5--8--5--|
E|--6--3--6--3--|

Verse
e|------------------------------------------------------|
b|------------------------------------------------------|
g|------10------10-----------------10------10-----------|
d|--10--10--10--10--8--5--8--5--10-10--10--10--8--5--3--|
a|--10---8--10---8--8--5--8--5--10--8--10---8--8--5--3--|
E|---8-------8------6--3--6--3---8------8------6--3--1--|

Chorus
e|-------------------------------|
b|-------------------------------|
g|-----5-----5--7--5--7--10--12--|
d|--2--5--2--5--7--5--7--10--12--|
a|--2--3--2--3--5--3--5---8--10--|
E|--0-----0----------------------|

“It's no wonder we can't pass...”
e|-----------------------|
b|-----------------------|
g|--12--10--------7--10--|
d|--12--10--------7--10--|
a|--10---8--[x9]--5---8--|
E|-----------------------|

Last Chorus
e|------------------------------------|
b|------------------------------------|
g|--9------9------------------10--12--|
d|--9--10--9--10--12--10--12--10--12--|
a|--7--10--7--10--12--10--12---8--10--|
E|------8------8--10---8--10----------|

Outro
e|--------------|
b|--------------|
g|--12--10------|
d|--12--10--10--|
a|--10---8--10--|
E|-----------8--|
Tap to rate this tab
# A B C D E F G H I J K L M N O P Q R S T U V W X Y Z