Guitaretab - guitar tabs
Song name
# A B C D E F G H I J K L M N O P Q R S T U V W X Y Z
Home / D / Donnas / Bitchin tab

Donnas - Bitchin tab

-------------------------------------------------------------------------------
			     BITCHIN'  The Donnas
-------------------------------------------------------------------------------

Tabbed by Elmira ////.


tuning: standard
----------------
Key
* Pinch Harmonic
~ Vibrato
h Hammer On
p Pull Off
/ Slide Up
\ Slide Down
b Bend
r Release
x Muted Note
. Palm Mute
----------------


e|---------------------------------------------------------------------------|
B|---------------------------------------------------------------------------|
G|---------------------------------------------------------------------------|
D|-10-10-10--10-10-10--10-10-10---5--5--5---6-6-6--6-6-6---8-8-8---8--8-8---| play x2
A|-10-10-10--10-10-10--10-10-10---5--5--5---6-6-6--6-6-6---8-8-8---8--8-8---|
E|-8--8--8-- 8--8--8---8--8--8----3--3--3---4-4-4--4-4-4---6-6-6---6--6-6---|
      .  .      .  .      .  .                . .    . .     . .
e|---------------------------------------------------------------------------|
B|---------------------------------------------------------------------------|
G|---------------------------------------------------------------------------|
D|--10-10-10--10-10-10---10---10----5--5--5---6-6-6--6-6-6---8-8-8--8--8--8--| play x2
A|--10-10-10--10-10-10---10---10----5--5--5---6-6-6--6-6-6---8-8-8--8--8--8--|
E|--8--8-8----8--8-8-----8----8-----3--3--3---4-4-4--4-4-4---6-6-6--6--6--6--|
       . .       . .                            . .    . .     . .      

e|---------------------------------------------------------------------------|
B|---------------------------------------------------------------------------|
G|---------------------------------------------------------------------------|
D|-10---10-10-10-10---10-10-10-10---10-10-10---8-8-8-8-8-8-------------------| play x3
A|-10---10-10-10-10---10-10-10-10---10-10-10---8-8-8-8-8-8-------------------|
E|-8----8--8--8--8----8--8--8--8----8--8--8----6-6-6-6-6-6-------------------|

e|---------------------------------------------------------------------------|
B|---------------------------------------------------------------------------|
G|---------------------------------------------------------------------------|
D|-10---10-10-10-10---10-10-10-10---10-10-10---8-8-8-8-8-8----10-------------|
A|-10---10-10-10-10---10-10-10-10---10-10-10---8-8-8-8-8-8----10-------------|
E|-8----8--8--8--8----8--8--8--8----8--8--8----6-6-6-6-6-6----8--------------|


e|---------------------------------------------------------------------------|
B|---------------------------------------------------------------------------|
G|---------------------------------------------------------------------------|
D|------------------------------8---------------------------------8----------|
A|----------8-10---10-10--8-------------------8-10---10-10--8----------------|
E|-8-8--11-------------------11------8-8--11-------------------11------------|
[ Tab from: http://www.guitaretab.com/d/donnas/97742.html ]
e|---------------------------------------------------------------------------|
B|---------------------------------------------------------------------------|
G|---------------------------------------------------------------------------|
D|------------------------------8-----10*----10*----10*----10*---------------|
A|----------8-10---10-10--8--------------------------------------------------|
E|-8-8--11-------------------11-----------8------8------8------8-------------|




e|---------------------------------------------------------------------------|
B|---------------------------------------------------------------------------|
G|---------------------------------------------------------------------------|
D|------------------------------8---------------------------------8----------|
A|----------8-10---10-10--8-------------------8-10---10-10--8----------------|
E|-8-8--11-------------------11------8-8--11-------------------11------------|


e|-------------------------------------------------11---------15-15~\--------|
B|------------------------------------------8---------13---------------------|
G|--------8--10--12-12-12-12*-12b*---8---------8-----------------------------|
D|-10-10-------------------------------10------------------------------------|
A|---------------------------------------------------------------------------|
E|---------------------------------------------------------------------------|

e|---------------------------------------------------------------------------|
B|---------------------------------------------------------------------------|
G|---------------------8-8-8-8-----------------------------------------------| 
D|----10-10-10-10------8-8-8-8------6-6-6-6-------8-8-8-8--------------------| play x3
A|----10-10-10-10------6-6-6-6------6-6-6-6-------8-8-8-8--------------------|
E|----8--8--8--8--------------------4-4-4-4-------6-6-6-6--------------------|

e|---------------------------------------------------------------------------|
B|---------------------------------------------------------------------------|
G|---5----------5----------5----------5--------------------------------------|
D|---5--5-5-----5--5-5-----5--5-5-----5--5-5---------------------------------|
A|---3--5-5-----3--5-5-----3--5-5-----3--5-5---------------------------------|
E|------3-3--------3-3--------3-3--------3-3---------------------------------|
        . .        . .        . .        . .
e|---------------------------------------------------------------------------|
B|---------------------------------------------------------------------------|
G|---------------------8-8-8-8-----------------------------------------------| 
D|----10-10-10-10------8-8-8-8------6-6-6-6-------8-8-8-8--------------------| play x3
A|----10-10-10-10------6-6-6-6------6-6-6-6-------8-8-8-8--------------------|
E|----8--8--8--8--------------------4-4-4-4-------6-6-6-6--------------------|



e|---------------------------------------------------------------------------|
B|--11h13-13-11h13-13-11h13-13-11h13-13-----------------------------------|
G|--12-12-12-12-12-12--12-12-12--12-12-12--5-------5-------5--------5-------|
D|------------------------------------------3--5-5--3--5-5--3--5-5---3--5--5-|
A|------------------------------------------3--3-3--3--3-3--3--3-3---3--3--3-|
E|---------------------------------------------3-3-----3-3-----3-3------3--3-|
                                          . .    . .    . .
Related for Bitchin tab