Guitaretab - guitar tabs
Song name
# A B C D E F G H I J K L M N O P Q R S T U V W X Y Z

Donnie Iris - Ah Leah tab

Donnie Iris-Ah Leah
Tabbed by Jay Remy Hommel
Listen and play along with the song to understand it better

Order of the song:

	Intro
	Verse
	Chorus
	Out-Chorus
	Verse 2
	Chorus
	Out-Chorus 2
	Solo
	Verse 3
Chorus
Chorus
Chorus-Fade Out

Intro 4x

E--------------------|
B---------------7----|
G---6---9---4---6----|
D---6---9---4---4----|
A---4---7---2---4----|
E--------------------|

Verse (1,2,3) 4x

E------------------------------|
B------------------------------|
G---4-4--3-3--6-6--6-6-6--6----|
D---4-4--4-4--6-6--6-6-6--6----|
A---2-2--4-4--4-4--4-4-4--4----|
E--------2-2-------------------|

Chorus 4x

E--------------------------|
B--------------------------|
G---6-6---4-4---4-4---3-3--|
D---6-6---6-6---4-4---4-4--|
A---4-4---6-6---2-2---4-4--|
E---------4-4---------2-2--|

Out-Chorus
[ Tab from: http://www.guitaretab.com/d/donnie-iris/267339.html ]
E-------------------------|
B---7-7-------------------|
G---6-6-6-6----4-4-3-3----|
D---4-4-6-6----4-4-4-4----|
A---7-4-4-4----2-2-4-4----|
E------------------2-2----|

Out-Chorus 2

E-----------------------------------------------|
B---7-7-----------------------------------------|
G---6-6-6-6----6-6-4-4----4-4-3-3----3-3-6-6----|
D---4-4-6-6----6-6-4-4----4-4-4-4----4-4-6-6----|
A---4-4-4-4----4-4-2-2----2-2-4-4----4-4-4-4----|
E-----------------------------2-2----2-2--------|

Solo

E------------------------------------------------------|
B----------------------------13h17p13-16~~-17-16-13----|
G---13p11p9-11b13~~r11---------------------------------|
D---------------------11v------------------------------|
A--------------------------------------------------16v-|
E------------------------------------------------------|

E---14b16-14b16-14b16>------|
B---------------------------|
G---------------------------|
D---------------------------|
A---------------------------|
E---------------------------|

*Key*
< = Slide Up
> = Slide Down
~ = Hold
b = Bend
h = Hammer On
p = Pull Off
r = Release
v = Vibrato

Good Luck!!
Related for Ah Leah tab
Ah Leah chords by Donnie Iris