Song name
# A B C D E F G H I J K L M N O P Q R S T U V W X Y Z

Donnie Iris - Love Is Like A Rock tab

--------------------------------------------------------------------------
                        Love is like a Rock  Donnie Iris
--------------------------------------------------------------------------
Tabbed by: Barry Wren
E-mail: barrywren@att.net

Tuning: standard

Chorus/Intro riff

e|----------------|----------------|-------------------|-------------------|
B|----------------|----------------|-------------------|-------------------|
G|----------------|----------------|----------2-----2-4|-------------------|
D|2-----2-4-2-----|2-----2-4-------|2-----2-4-0-3-4----|2---------2--------|
A|0-3-4-----0-----|0-3-4-----2-----|0-3-4--------------|0-3b------0--------|
E|---------------------------0-----|-------------------|----0-3-4----------|


Verse riff

e|--------------------------|----------------------------------------------|
B|--9---x-9-x-9-x-x-7-7-x-x-|7---x-7-x-7-x-7---10-10-10-10-10-10-----------|
G|--9---x-9-x-9-x-x-7-7-x-x-|7---x-7-x-7-x-7---9--9--9--9--9--9------------|
D|--9---x-9-x-9-x-x-7-7-x-x-|7---x-7-x-7-x-7---11-11-11-11-11-11-----------|
A|--------------------------|----------------------------------------------|
E|--------------------------|----------------------------------------------|



************************************

| /   slide up
| \   slide down
| h   hammer-on
| p   pull-off
| ~   vibrato
| +   harmonic
| x   Mute note
| b   Bend
| pb  Pre-bend
| br  Bend release
| pbr Pre-bend release
| brb Bend release bend

************************************
Tap to rate this tab
# A B C D E F G H I J K L M N O P Q R S T U V W X Y Z