Song name
# A B C D E F G H I J K L M N O P Q R S T U V W X Y Z

Donnie Iris - Ah Leah tab

This is my first submitted tab, and it sounds right to me.

Standard Tuning

Intro
-----------------------------------------------|
-----------------------------------------------|
------------9-------------11-------------------|   x4
----11------9------9------11-------------------|
----11------7------9------9--------------------|
----9--------------7---------------------------|

Verse
------------------------------------------------|
------------------------------------------------|
------------------------------------------------|  x4
----9------4------11---------------11-----------|
----9------4------11---------------11-----------|
----7------2------9----------9--9--9------------|
                         P.M .  .

Chorus
--------------------------------------------------|
--------------------------------------------------|
--------------------------------------------------|  x4
----11-----9------9------4------------------------|
----11-----9------9------4------------------------|
----9------7------7------2------------------------|

-----------------------------------------------|
-----------------------------------------------|
----9--9--6--6---------------------------------|
----9--9--6--6------9--9--4--4-----------------|
----7--7--4--4------9--9--4--4-----------------|
--------------------7--7--2--2-----------------|

Verse x4

Chorus x4

----------------------------------------------------------------|
----------------------------------------------------------------|
--9--9--6--6------6--6--4--4------4--4------------4--4--6--6----|  x2
--9--9--6--6------6--6--4--4------4--4--4--4------4--4--6--6----|
--7--7--4--4------4--4--2--2------2--2--4--4------2--2--4--4----|
----------------------------------------2--2--------------------|

Solo (over Intro)

-------------------------------------------|
-------------------------------------------|
--11b12r-9-11b13h-----11b12r-9-------------|
------------------------------11-----------|
-------------------------------------------|
-------------------------------------------|

11b12r = bend 11 to 12 and release
11b13h = bend 11 to 13 and hold

-------12------------12--------------------|
-----------14b16h----------16r14----9------|
--\14--------------------------------------|
-------------------------------------------|
-------------------------------------------|
-------------------------------------------|

\14 = slide up to 14
14b16h = bend 14 to 16 and hold
  play the 12 on the e string
16r14 = release the bend

---------15b16-(16)-(16)--15b16-(16)-15b16h--------|
--9\-----------------------------------------------|
---------------------------------------------------|
---------------------------------------------------|
---------------------------------------------------|
---------------------------------------------------|

9\ = slide 9 up the neck
15b16 = bend 15 to 16
(16) = pick note while string is still bent
15b16h = bend 15 to 16 and hold

Verse x4

Chorus x8

Chorus x8 with and fade out

------9-----9-----9-----9-----9-----9--------|
---9-----9-----9-----9-----9-----9-----------|
---------------------------------------------|
---------------------------------------------|
---------------------------------------------|
---------------------------------------------|

Lyrics

 Yeah, it's been a long, long time.
 Such a site, you're lookin' better than a body has a right to.
 Don't you know we're playin' with the fire?
 But we can stop this burnin' desire, Leah!

 Ah! Leah! Here we go again!
 Ah! Leah! Is it ever gonna end?
 Ah! Leah! Here we go again!
 Ah! Leah!

 I see your lips and I wonder who's been kissin' them.
 I never knew how badly I was missin' them.
 We both know we're never going to make it,
 but when we touch, we never have to fake it, Leah!

 Ah! Leah! Here we go again!
 Ah! Leah! Is it ever gonna end?
 Ah! Leah! Here we go again!
 Ah! Leah! We ain't learned our lesson yet!

 Baby, it's no good. We're just askin' for trouble.
 I can touch you, but I don't know how to love you.
 It ain't no use! We're headed for disaster.
 Our minds said, "No!" But our hearts were talkin' faster, Leah!

 Ah! Leah! Here we go again!
 Ah! Leah! Here we go again!
 Ah! Leah! Leah, Leah, Leah!
 Ah! Leah! Here we go again!

 Ah! Leah, Leah, Leah!
 Ah! Leah! We're never, ever, ever gonna make it yeah!
 Ah! Leah!
 Ah! Leah! Here we go again!
Tap to rate this tab
 
# A B C D E F G H I J K L M N O P Q R S T U V W X Y Z