Guitaretab - guitar tabs
Song name
# A B C D E F G H I J K L M N O P Q R S T U V W X Y Z

Donny Iris - Ah Leah tab

----------------------------------------------------------------------------
			     Ah! Leah! - Donnie Iris
----------------------------------------------------------------------------
Tabbed by: Eric Czerwinski  27 July 2007	
Email: Teamski1@hotmail.com

An insanely easy tune, but I loved it as a kid! 

Tuning: Normal


Intro

e|------------------------------------------------------------------|
B|-6--9--4--11-----6--9--4--11-----6--9--4--11-----6--9--4--11------|
G|-6--9--4--11-----6--9--4--11-----6--9--4--11-----6--9--4--11------|
D|-6--9--4--11-----6--9--4--11-----6--9--4--11-----6--9--4--11------|
A|-4--7--2---9-----4--7--2---9-----4--7--2---9-----4--7--7---9------|
E|------------------------------------------------------------------|


Yeah it's been a long long time. Such a site Jo.
 Lookin' better than a body has a right to.

e|---------------------------------------------|
B|-4-4-----6-6-6----4-4-----6-6-6--------------|
G|-4-4-----6-6-6----4-4-----6-6-6--------------|
D|-4-4--4--6-6-6----4-4--4--6-6-6--------------|
A|-2-2--4--4-4-4----2-2--4--4-4-4--------------|
E|------2----------------2---------------------|

Don't you know we're playin' with the fire?
But we can stop this burnin' desire Leah!

e|---------------------------------------------|
B|-4-4-----6-6-6----4-4-----6-6-6--------------|
G|-4-4-----6-6-6----4-4-----6-6-6--------------|
D|-4-4--4--6-6-6----4-4--4--6-6-6--------------|
A|-2-2--4--4-4-4----2-2--4--4-4-4--------------|
E|------2----------------2---------------------|

Ah! Leah! Here we go again!
Ah! Leah! Is it ever gonna end?
Ah! Leah! Here we go again!
Ah! Leah!

e|-----------------------------------------------------------|
B|-6-----4-------6-----4-------6-----4-------6-----4---------|
G|-6-----4-------6-----4-------6-----4-------6-----4---------|
D|-6--6--4--4----6--6--4--4----6--6--4--4----6--6--4--4------|
A|-4--6--2--4----4--6--2--4----4--6--2--4----4--6--2--4------|
E|----4-----2-------4-----2-------4-----2-------4-----2------|

e|-----------------------------------------------------------|
B|-9-9---6-6---4-4-------------------------------------------|
G|-9-9---6-6---4-4-------------------------------------------|
D|-9-9---6-6---4-4---4-4-------------------------------------|
A|-7-7---4-4---2-2---4-4-------------------------------------|
E|-------------------2-2-------------------------------------|


I see your lips and I wonder who's been kissin' them.
I never knew how badly I was missin' them.

e|---------------------------------------------|
B|-4-4-----6-6-6----4-4-----6-6-6--------------|
G|-4-4-----6-6-6----4-4-----6-6-6--------------|
D|-4-4--4--6-6-6----4-4--4--6-6-6--------------|
A|-2-2--4--4-4-4----2-2--4--4-4-4--------------|
E|------2----------------2---------------------|


We both know we're never going to make it 
but when we touch, we never have to fake it, Leah!

e|---------------------------------------------|
B|-4-4-----6-6-6----4-4-----6-6-6--------------|
G|-4-4-----6-6-6----4-4-----6-6-6--------------|
D|-4-4--4--6-6-6----4-4--4--6-6-6--------------|
A|-2-2--4--4-4-4----2-2--4--4-4-4--------------|
E|------2----------------2---------------------|


Ah! Leah! Here we go again!
Ah! Leah! Is it ever gonna end?
Ah! Leah! Here we go again!
Ah! Leah! We ain't learned our lesson yet!
[ Tab from: http://www.guitaretab.com/d/donny-iris/39893.html ]
e|-----------------------------------------------------------|
B|-6-----4-------6-----4-------6-----4-------6-----4---------|
G|-6-----4-------6-----4-------6-----4-------6-----4---------|
D|-6--6--4--4----6--6--4--4----6--6--4--4----6--6--4--4------|
A|-4--6--2--4----4--6--2--4----4--6--2--4----4--6--2--4------|
E|----4-----2-------4-----2-------4-----2-------4-----2------|


  Repeat x2
e|----------------------------------------------------------|
B|-9-9--6-6--6-6--4-4--4-4------------6-6-------------------|
G|-9-9--6-6--6-6--4-4--4-4------------6-6-------------------|
D|-9-9--6-6--6-6--4-4--4-4--4-4--4-4--6-6-------------------|
A|-7-7--4-4--4-4--2-2--2-2--4-4--4-4--4-4-------------------|
E|--------------------------2-2--2-2------------------------|


(solo)

e|------------------------------------------------------------------|
B|-6--9--4--11-----6--9--4--11-----6--9--4--11-----6--9--4--11------|
G|-6--9--4--11-----6--9--4--11-----6--9--4--11-----6--9--4--11------|
D|-6--9--4--11-----6--9--4--11-----6--9--4--11-----6--9--4--11------|
A|-4--7--2---9-----4--7--2---9-----4--7--2---9-----4--7--7---9------|
E|------------------------------------------------------------------|

 

Baby, it's no good. We're just askin' for trouble.
I can touch you, but I don't know how to love you.

e|---------------------------------------------|
B|-4-4-----6-6-6----4-4-----6-6-6--------------|
G|-4-4-----6-6-6----4-4-----6-6-6--------------|
D|-4-4--4--6-6-6----4-4--4--6-6-6--------------|
A|-2-2--4--4-4-4----2-2--4--4-4-4--------------|
E|------2----------------2---------------------|


It ain't no use! We'er headed for disaster.
Our minds said, "No!" But our hearts were talkin' faster, Leah!

e|---------------------------------------------|
B|-4-4-----6-6-6----4-4-----6-6-6--------------|
G|-4-4-----6-6-6----4-4-----6-6-6--------------|
D|-4-4--4--6-6-6----4-4--4--6-6-6--------------|
A|-2-2--4--4-4-4----2-2--4--4-4-4--------------|
E|------2----------------2---------------------|


Ah! Leah! Here we go again!
Ah! Leah! Here we go again!
Ah! Leah! Leah, Leah, Leah!
Ah! Leah! Here we go again!

e|-----------------------------------------------------------|
B|-6-----4-------6-----4-------6-----4-------6-----4---------|
G|-6-----4-------6-----4-------6-----4-------6-----4---------|
D|-6--6--4--4----6--6--4--4----6--6--4--4----6--6--4--4------|
A|-4--6--2--4----4--6--2--4----4--6--2--4----4--6--2--4------|
E|----4-----2-------4-----2-------4-----2----4-----2--2------|


Ah! Leah, Leah, Leah!
Ah! Leah! We're never, ever, ever gonna make it yeah!
Ah! Leah!
Ah! Leah! Here we go again!

e|-----------------------------------------------------------|
B|-6-----4-------6-----4-------6-----4-------6-----4---------|
G|-6-----4-------6-----4-------6-----4-------6-----4---------|
D|-6--6--4--4----6--6--4--4----6--6--4--4----6--6--4--4------|
A|-4--6--2--4----4--6--2--4----4--6--2--4----4--6--2--4------|
E|----4-----2-------4-----2-------4-----2----4-----2--2------|

e|-----------------------------------------------------------|
B|-6-----4-------6-----4-------6-----4-------6-----4---------|
G|-6-----4-------6-----4-------6-----4-------6-----4---------|
D|-6--6--4--4----6--6--4--4----6--6--4--4----6--6--4--4------|
A|-4--6--2--4----4--6--2--4----4--6--2--4----4--6--2--4------|
E|----4-----2-------4-----2-------4-----2----4-----2--2------|

  
  Repeating tone

e|--9--9--9--9--9--9--9--9--9--9--9--9--9--9--9--9--9--9--9--|
B|-9--9--9--9--9--9--9--9--9--9--9--9--9--9--9--9--9--9--9---|
G|-----------------------------------------------------------|
D|-----------------------------------------------------------|
A|-----------------------------------------------------------|
E|-----------------------------------------------------------|




| /  slide up
| \  slide down
| h  hammer-on
| p  pull-off
| ~  vibrato
| +  harmonic
| x  Mute note
============================================================================
Advertisement will be closed in 10 seconds