Guitaretab - guitar tabs
Song name
# A B C D E F G H I J K L M N O P Q R S T U V W X Y Z
Home / D / Donora / Shhh tab

Donora - Shhh tab

---------------------------------------------------------------------------------
			     		Shhh by Donora
---------------------------------------------------------------------------------
Tabbed by: dizxchic418
Email: tennisp4@aol.com

donoramusic.com

Tuning: standard
Written as 4 beats per measure

e|----------------|---------------|----------------|---------------|
B|----------------|---------------|----------------|---------------|
G|--------1---4---|--------1---4--|--------1---4---|--------1------|
D|----4-----------|----4----------|----4-----------|----4------4---|
A|----------------|---------------|----------------|---------------|
E|-00---0---0---0-|-00---0---0---0|-00---0---0---0-|-00---0---0---0| 2x
[ Tab from: http://www.guitaretab.com/d/donora/175942.html ]
e|----------------|---------------|----------------|---------------|
B|----------------|---------------|----------------|---------------|
G|--------1---4---|--------1---4--|--------1---4---|--------1------|
D|----4-----------|----4----------|----4-----------|----4-------4--|
A|----------------|---------------|-00---0---0---0-|-22---2---2---2|
E|-00---0---0---0-|-00---0---0---0|----------------|---------------|8x
>
3rd time: I like I like when we whisper soft to each other
4th time: I like I like when we're quiet with one another
7th time: I like I like when we're n-nice nice to each other
8th time: I like I like when we surely [stop playing] like one another

e|------------|
B|------------|
G|------------|
D|--9999 9999-|
A|--7777 7777-|
E|------------|4x

e|-----------|-------------|-----------|-----------|
B|-----------|-------------|-----------|-----------|
G|-9999 9999-|-9999(9)999-|-----------|-----------|
D|-9999 9999-|-9999(9)999-|-7777 7777-|-9999 9999-|
A|-7777-7776-|-776--(7)777-|-7777 7777-|-9999 9999-|
E|-----------|----7 (7)777-|-5555-5555-|-7777-7777-|8x (1st measure of the song plays 
also, repeating each measure over until the [stop playing])
>
5th time: I like I like when we whisper soft to each other
6th time: I like I like when we're quiet with one another
7th time: I like I like when we're n-nice nice to each other
8th time: I like I like when we surely [stop playing] like one another

e|----------------|---------------|----------------|---------------|
B|----------------|---------------|----------------|---------------|
G|--------1---4---|--------1---4--|--------1---4---|--------1------|
D|----4-----------|----4----------|----4-----------|----4-------4--|
A|----------------|---------------|-00---0---0---0-|-22---2---2---2|
E|-00---0---0---0-|-00---0---0---0|----------------|---------------|2x
                       fade out

=====================================================================================
Related for Shhh tab