Song name
# A B C D E F G H I J K L M N O P Q R S T U V W X Y Z

Donots - My Stereos A Liar tab

errr, i noticed this one wernt on here, so i learnt parts of it by ear, best i 
try and develop it. thanks.

intro: (Guitar 1) (x2)

palm mute

|---------------------------------------------------------------------------------------|
|---------------------------------------------------------------------------------------|
|---------------------------------------------------------------------------------------|
|-----------------------------7-5-4-5-4-5-4------------------------------7-5-4-5-4-5-4--|
|------7----7-----7----7--5-5-------------------9-----9-----9-----9--5-5----------------|
|--5-5--5-5---5-5--5-5----------------------7-7---7-7---7-7---7-7-----------------------|

Intro (Guitar 2) (x3)

|---------------------------------------------------------------------------------------|
|---------------------------------------------------------------------------------------|
|------------------------7-------------------------------------------7------------------|
|-7----------------------7------------------9------------------------7------------------|
|-7----------------------5------------------9------------------------5------------------|
|-5-----------------------------------------7-------------------------------------------|

Intro (Guitar 3) (x3) play with the chords.

|--------------------------|
|--------------------------|
|-----------18--16--13--14-|
|--------------------------|
|-----------16--14--11--12-|
|--------------------------|

Verse (Guitar 1) Palm Mute

|---------------------------------------------------------------------------------------|
|---------------------------------------------------------------------------------------|
|------------------------7-------------------------------------------7------------------|
|-7----------------------7------------------9------------------------7------------------|
|-7----------------------5------------------9------------------------5------------------|
|-5-----------------------------------------7-------------------------------------------|

Chorus (All Guitars)

|---------------------------------------------------------------------------------------|
|---------------------------------------------------------------------------------------|
|------------------------7-------------------------------------------7------------------|
|-7----------------------7------------------9------------------------7------------------|
|-7----------------------5------------------9------------------------5------------------|
|-5-----------------------------------------7-------------------------------------------|

"Thats alright with me" (pre chorus/bridge) (x2)

|--------|
|--------|
|--------|
|-11-9-7-|
|-11-9-7-|
|-9--7-5-|

just to get you started because i can't figure out any more of it, no doubt the pre 
is wrong, but it fits when i play with it, and the intro is probably a bit off.
Tap to rate this tab
 
# A B C D E F G H I J K L M N O P Q R S T U V W X Y Z