Song name
# A B C D E F G H I J K L M N O P Q R S T U V W X Y Z

Donots - This Is Not A Drill tab

Donots - This is not a Drill (Coma Chameleon 2008)
tabed by me, Phil

sounds correct but i think it isn't 100% correct

tuning: Eb Ab Db Gb Bb Eb (half step down)

intro/verse:
Eb|--------------------------------------------|
Bb|--------------------------------------------|
Gb|--------------------------------------------|
Db|--------------------------------------------|
Ab|----222------222----000-222---000-222-------|
Eb|-000---33-000---33---------33--------33-----|

pre-chorus:
Eb|---------------------------------------------|
Bb|---------------------------------------------|
Gb|-5-5-5-5-------------------------------------|
Db|-5-5-5-5--7-7-7-7-9-9-9-9-10-10-10-10--------|
Ab|-3-3-3-3--7-7-7-7-9-9-9-9-10-10-10-10--------|
Eb|----------5-5-5-5-7-7-7-7-8--8--8--8---------|

update later (solo etc.)
Tap to rate this tab
# A B C D E F G H I J K L M N O P Q R S T U V W X Y Z