Donots - New Hope For The Dead tab

###### More Donots Tabs at: http://bit.ly/dad9V3 ######

Band: Donots
Album: Coma Chameleon
Year: 2008
Track: 5

Dm
Calling
E
The fallen
Asus2                            Dm
It's a brand new morning
F#m                                E
For the dearly departed
G#
The stone cold hearted
Dm
Calling
E
The undead
Asus2                            E
Don't call it a comeback
F#m                                E
From six feet under
G#
Forever we shall wander

Riffs:

Riffs:

Riff 1:
D#||---------------||
A#||---------------||
F#||---------------||
C#||--2p--1--------||
G#||---------2--4--||
D#||---------------||

Riff 2:
D#||---------------||
A#||---------------||
F#||---------------||
C#||--1h--2--4-----||
G#||------------4--||
D#||---------------||

Riff 3:
 
D#||-------------------------------------------------|
A#||-------------------------------------------------|
F#||-------------------------------------------------|
C#||--2----1s----4----2---------2----1s----4----1---2|
G#||-------------------------------------------------|
D#||-------------------------------------------------|
Tap to rate this tab
 
# A B C D E F G H I J K L M N O P Q R S T U V W X Y Z